  0
SECTION
  2
HEADER
  9
$ACADVER
  1
AC1018
  9
$ACADMAINTVER
 70
   104
  9
$DWGCODEPAGE
  3
ANSI_1252
  9
$AUTHOR
  1
rmorof
  9
$CUSTOMPROPERTYTAG
  1
Manager
  9
$CUSTOMPROPERTY
  1

  9
$CUSTOMPROPERTYTAG
  1
Firma
  9
$CUSTOMPROPERTY
  1

  9
$CUSTOMPROPERTYTAG
  1
Kategorie
  9
$CUSTOMPROPERTY
  1

  9
$CUSTOMPROPERTYTAG
  1
Bauteilnummer
  9
$CUSTOMPROPERTY
  1
ES 170 ZG_29924457
  9
$CUSTOMPROPERTYTAG
  1
Bezeichnung
  9
$CUSTOMPROPERTY
  1

  9
$CUSTOMPROPERTYTAG
  1
Projekt
  9
$CUSTOMPROPERTY
  1

  9
$CUSTOMPROPERTYTAG
  1
Konstrukteur
  9
$CUSTOMPROPERTY
  1
rmorof
  9
$CUSTOMPROPERTYTAG
  1
Ingenieur
  9
$CUSTOMPROPERTY
  1

  9
$CUSTOMPROPERTYTAG
  1
Bevollmächtigter
  9
$CUSTOMPROPERTY
  1

  9
$CUSTOMPROPERTYTAG
  1
Kostenstelle
  9
$CUSTOMPROPERTY
  1

  9
$CUSTOMPROPERTYTAG
  1
Zulieferer
  9
$CUSTOMPROPERTY
  1

  9
$CUSTOMPROPERTYTAG
  1
Benutzerstatus
  9
$CUSTOMPROPERTY
  1

  9
$CUSTOMPROPERTYTAG
  1
Konstruktionsstatus
  9
$CUSTOMPROPERTY
  1
InBearbeitung
  9
$CUSTOMPROPERTYTAG
  1
Kontrolliert von
  9
$CUSTOMPROPERTY
  1

  9
$CUSTOMPROPERTYTAG
  1
Konstruktion genehmigt von
  9
$CUSTOMPROPERTY
  1

  9
$CUSTOMPROPERTYTAG
  1
Fertigung genehmigt von
  9
$CUSTOMPROPERTY
  1

  9
$CUSTOMPROPERTYTAG
  1
bez. engl.
  9
$CUSTOMPROPERTY
  1

  9
$CUSTOMPROPERTYTAG
  1
bez. franz.
  9
$CUSTOMPROPERTY
  1

  9
$INSBASE
 10
0.0
 20
0.0
 30
0.0
  9
$EXTMIN
 10
0.0
 20
0.0
 30
0.0
  9
$EXTMAX
 10
297.0
 20
210.0
 30
0.0
  9
$LIMMIN
 10
0.0
 20
0.0
  9
$LIMMAX
 10
297.0
 20
210.0
  9
$ORTHOMODE
 70
     0
  9
$REGENMODE
 70
     1
  9
$FILLMODE
 70
     1
  9
$QTEXTMODE
 70
     0
  9
$MIRRTEXT
 70
     0
  9
$LTSCALE
 40
1.0
  9
$ATTMODE
 70
     1
  9
$TEXTSIZE
 40
0.2
  9
$TRACEWID
 40
0.05
  9
$TEXTSTYLE
  7
Standard
  9
$CLAYER
  8
0
  9
$CELTYPE
  6
ByLayer
  9
$CECOLOR
 62
   256
  9
$CELTSCALE
 40
1.0
  9
$DISPSILH
 70
     0
  9
$DIMSCALE
 40
1.0
  9
$DIMASZ
 40
1.799999999999999
  9
$DIMEXO
 40
0.0625
  9
$DIMDLI
 40
0.38
  9
$DIMRND
 40
0.0
  9
$DIMDLE
 40
0.0
  9
$DIMEXE
 40
0.18
  9
$DIMTP
 40
0.0
  9
$DIMTM
 40
0.0
  9
$DIMTXT
 40
0.3499999940395355
  9
$DIMCEN
 40
0.09
  9
$DIMTSZ
 40
0.0
  9
$DIMTOL
 70
     0
  9
$DIMLIM
 70
     0
  9
$DIMTIH
 70
     1
  9
$DIMTOH
 70
     1
  9
$DIMSE1
 70
     0
  9
$DIMSE2
 70
     0
  9
$DIMTAD
 70
     0
  9
$DIMZIN
 70
     0
  9
$DIMBLK
  1

  9
$DIMASO
 70
     1
  9
$DIMSHO
 70
     1
  9
$DIMPOST
  1

  9
$DIMAPOST
  1

  9
$DIMALT
 70
     0
  9
$DIMALTD
 70
     2
  9
$DIMALTF
 40
25.4
  9
$DIMLFAC
 40
1.0
  9
$DIMTOFL
 70
     0
  9
$DIMTVP
 40
0.0
  9
$DIMTIX
 70
     0
  9
$DIMSOXD
 70
     0
  9
$DIMSAH
 70
     0
  9
$DIMBLK1
  1

  9
$DIMBLK2
  1

  9
$DIMSTYLE
  2
Standard
  9
$DIMCLRD
 70
     0
  9
$DIMCLRE
 70
     0
  9
$DIMCLRT
 70
     0
  9
$DIMTFAC
 40
1.0
  9
$DIMGAP
 40
0.09
  9
$DIMJUST
 70
     0
  9
$DIMSD1
 70
     0
  9
$DIMSD2
 70
     0
  9
$DIMTOLJ
 70
     1
  9
$DIMTZIN
 70
     0
  9
$DIMALTZ
 70
     0
  9
$DIMALTTZ
 70
     0
  9
$DIMUPT
 70
     0
  9
$DIMDEC
 70
     4
  9
$DIMTDEC
 70
     4
  9
$DIMALTU
 70
     2
  9
$DIMALTTD
 70
     2
  9
$DIMTXSTY
  7
Standard
  9
$DIMAUNIT
 70
     0
  9
$DIMADEC
 70
     0
  9
$DIMALTRND
 40
0.0
  9
$DIMAZIN
 70
     0
  9
$DIMDSEP
 70
    46
  9
$DIMATFIT
 70
     3
  9
$DIMFRAC
 70
     0
  9
$DIMLDRBLK
  1

  9
$DIMLUNIT
 70
     2
  9
$DIMLWD
 70
    -2
  9
$DIMLWE
 70
    -2
  9
$DIMTMOVE
 70
     0
  9
$LUNITS
 70
     2
  9
$LUPREC
 70
     4
  9
$SKETCHINC
 40
0.1
  9
$FILLETRAD
 40
0.0
  9
$AUNITS
 70
     0
  9
$AUPREC
 70
     0
  9
$MENU
  1
.
  9
$ELEVATION
 40
0.0
  9
$PELEVATION
 40
0.0
  9
$THICKNESS
 40
0.0
  9
$LIMCHECK
 70
     0
  9
$CHAMFERA
 40
0.0
  9
$CHAMFERB
 40
0.0
  9
$CHAMFERC
 40
0.0
  9
$CHAMFERD
 40
0.0
  9
$SKPOLY
 70
     0
  9
$TDCREATE
 40
2454949.661752142
  9
$TDUCREATE
 40
2454949.578418808
  9
$TDUPDATE
 40
2454949.661752142
  9
$TDUUPDATE
 40
2454949.578418808
  9
$TDINDWG
 40
0.0000173611
  9
$TDUSRTIMER
 40
0.0000173611
  9
$USRTIMER
 70
     1
  9
$ANGBASE
 50
0.0
  9
$ANGDIR
 70
     0
  9
$PDMODE
 70
     0
  9
$PDSIZE
 40
0.0
  9
$PLINEWID
 40
0.0
  9
$SPLFRAME
 70
     0
  9
$SPLINETYPE
 70
     6
  9
$SPLINESEGS
 70
     8
  9
$HANDSEED
  5
320
  9
$SURFTAB1
 70
     6
  9
$SURFTAB2
 70
     6
  9
$SURFTYPE
 70
     6
  9
$SURFU
 70
     6
  9
$SURFV
 70
     6
  9
$UCSBASE
  2

  9
$UCSNAME
  2

  9
$UCSORG
 10
0.0
 20
0.0
 30
0.0
  9
$UCSXDIR
 10
1.0
 20
0.0
 30
0.0
  9
$UCSYDIR
 10
0.0
 20
1.0
 30
0.0
  9
$UCSORTHOREF
  2

  9
$UCSORTHOVIEW
 70
     0
  9
$UCSORGTOP
 10
0.0
 20
0.0
 30
0.0
  9
$UCSORGBOTTOM
 10
0.0
 20
0.0
 30
0.0
  9
$UCSORGLEFT
 10
0.0
 20
0.0
 30
0.0
  9
$UCSORGRIGHT
 10
0.0
 20
0.0
 30
0.0
  9
$UCSORGFRONT
 10
0.0
 20
0.0
 30
0.0
  9
$UCSORGBACK
 10
0.0
 20
0.0
 30
0.0
  9
$PUCSBASE
  2

  9
$PUCSNAME
  2

  9
$PUCSORG
 10
0.0
 20
0.0
 30
0.0
  9
$PUCSXDIR
 10
1.0
 20
0.0
 30
0.0
  9
$PUCSYDIR
 10
0.0
 20
1.0
 30
0.0
  9
$PUCSORTHOREF
  2

  9
$PUCSORTHOVIEW
 70
     0
  9
$PUCSORGTOP
 10
0.0
 20
0.0
 30
0.0
  9
$PUCSORGBOTTOM
 10
0.0
 20
0.0
 30
0.0
  9
$PUCSORGLEFT
 10
0.0
 20
0.0
 30
0.0
  9
$PUCSORGRIGHT
 10
0.0
 20
0.0
 30
0.0
  9
$PUCSORGFRONT
 10
0.0
 20
0.0
 30
0.0
  9
$PUCSORGBACK
 10
0.0
 20
0.0
 30
0.0
  9
$USERI1
 70
     0
  9
$USERI2
 70
     0
  9
$USERI3
 70
     0
  9
$USERI4
 70
     0
  9
$USERI5
 70
     0
  9
$USERR1
 40
0.0
  9
$USERR2
 40
0.0
  9
$USERR3
 40
0.0
  9
$USERR4
 40
0.0
  9
$USERR5
 40
0.0
  9
$WORLDVIEW
 70
     1
  9
$SHADEDGE
 70
     3
  9
$SHADEDIF
 70
    70
  9
$TILEMODE
 70
     1
  9
$MAXACTVP
 70
    64
  9
$PINSBASE
 10
0.0
 20
0.0
 30
0.0
  9
$PLIMCHECK
 70
     0
  9
$PEXTMIN
 10
0.0
 20
0.0
 30
0.0
  9
$PEXTMAX
 10
297.0
 20
210.0
 30
0.0
  9
$PLIMMIN
 10
0.0
 20
0.0
  9
$PLIMMAX
 10
297.0
 20
210.0
  9
$UNITMODE
 70
     0
  9
$VISRETAIN
 70
     1
  9
$PLINEGEN
 70
     0
  9
$PSLTSCALE
 70
     1
  9
$TREEDEPTH
 70
  3020
  9
$CMLSTYLE
  2
Standard
  9
$CMLJUST
 70
     0
  9
$CMLSCALE
 40
1.0
  9
$PROXYGRAPHICS
 70
     1
  9
$MEASUREMENT
 70
     1
  9
$CELWEIGHT
370
    -1
  9
$ENDCAPS
280
     0
  9
$JOINSTYLE
280
     0
  9
$LWDISPLAY
290
     0
  9
$INSUNITS
 70
     4
  9
$HYPERLINKBASE
  1

  9
$STYLESHEET
  1

  9
$XEDIT
290
     1
  9
$CEPSNTYPE
380
     0
  9
$PSTYLEMODE
290
     1
  9
$FINGERPRINTGUID
  2
{4DB2EF6A-7FB6-421A-9A6A-C61F24EB9915}
  9
$VERSIONGUID
  2
{DE5E95FF-7974-4981-BC92-FD9845F2B157}
  9
$EXTNAMES
290
     1
  9
$PSVPSCALE
 40
0.0
  9
$OLESTARTUP
290
     0
  9
$SORTENTS
280
   127
  9
$INDEXCTL
280
     0
  9
$HIDETEXT
280
     1
  9
$XCLIPFRAME
290
     0
  9
$HALOGAP
280
     0
  9
$OBSCOLOR
 70
   257
  9
$OBSLTYPE
280
     0
  9
$INTERSECTIONDISPLAY
280
     0
  9
$INTERSECTIONCOLOR
 70
   257
  9
$DIMASSOC
280
     1
  9
$PROJECTNAME
  1

  0
ENDSEC
  0
SECTION
  2
CLASSES
  0
CLASS
  1
ACDBDICTIONARYWDFLT
  2
AcDbDictionaryWithDefault
  3
ObjectDBX Classes
 90
        0
 91
        1
280
     0
281
     0
  0
CLASS
  1
MATERIAL
  2
AcDbMaterial
  3
ObjectDBX Classes
 90
     1153
 91
        3
280
     0
281
     0
  0
CLASS
  1
VISUALSTYLE
  2
AcDbVisualStyle
  3
ObjectDBX Classes
 90
     4095
 91
       16
280
     0
281
     0
  0
CLASS
  1
SCALE
  2
AcDbScale
  3
ObjectDBX Classes
 90
     1153
 91
       33
280
     0
281
     0
  0
CLASS
  1
TABLESTYLE
  2
AcDbTableStyle
  3
ObjectDBX Classes
 90
     4095
 91
        1
280
     0
281
     0
  0
CLASS
  1
MLEADERSTYLE
  2
AcDbMLeaderStyle
  3
ACDB_MLEADERSTYLE_CLASS
 90
     4095
 91
        1
280
     0
281
     0
  0
CLASS
  1
DICTIONARYVAR
  2
AcDbDictionaryVar
  3
ObjectDBX Classes
 90
        0
 91
        5
280
     0
281
     0
  0
CLASS
  1
CELLSTYLEMAP
  2
AcDbCellStyleMap
  3
ObjectDBX Classes
 90
     1152
 91
        1
280
     0
281
     0
  0
ENDSEC
  0
SECTION
  2
TABLES
  0
TABLE
  2
VPORT
  5
8
330
0
100
AcDbSymbolTable
 70
     1
  0
VPORT
  5
5F
330
8
100
AcDbSymbolTableRecord
100
AcDbViewportTableRecord
  2
*Active
 70
     0
 10
0.0
 20
0.0
 11
1.0
 21
1.0
 12
148.5
 22
105.0
 13
0.0
 23
0.0
 14
1.0
 24
1.0
 15
0.0
 25
0.0
 16
0.0
 26
0.0
 36
1.0
 17
0.0
 27
0.0
 37
0.0
 40
210.0
 41
1.414285714285714
 42
50.0
 43
0.0
 44
0.0
 50
0.0
 51
0.0
 71
     0
 72
   100
 73
     1
 74
     1
 75
     0
 76
     0
 77
     0
 78
     0
281
     0
 65
     1
110
0.0
120
0.0
130
0.0
111
1.0
121
0.0
131
0.0
112
0.0
122
1.0
132
0.0
 79
     0
146
0.0
  0
ENDTAB
  0
TABLE
  2
LTYPE
  5
5
330
0
100
AcDbSymbolTable
 70
    59
  0
LTYPE
  5
63
330
5
100
AcDbSymbolTableRecord
100
AcDbLinetypeTableRecord
  2
ByBlock
 70
     0
  3

 72
    65
 73
     0
 40
0.0
  0
LTYPE
  5
64
330
5
100
AcDbSymbolTableRecord
100
AcDbLinetypeTableRecord
  2
ByLayer
 70
     0
  3

 72
    65
 73
     0
 40
0.0
  0
LTYPE
  5
65
330
5
100
AcDbSymbolTableRecord
100
AcDbLinetypeTableRecord
  2
Continuous
 70
     0
  3
Solid line
 72
    65
 73
     0
 40
0.0
  0
LTYPE
  5
7D
330
5
100
AcDbSymbolTableRecord
100
AcDbLinetypeTableRecord
  2
Section_View_Lines
 70
     0
  3
Section View Lines
 72
    65
 73
     4
 40
0.8406
 49
0.6614
 74
     0
 49
-0.0827
 74
     0
 49
0.0138
 74
     0
 49
-0.0827
 74
     0
  0
LTYPE
  5
7E
330
5
100
AcDbSymbolTableRecord
100
AcDbLinetypeTableRecord
  2
CHAIN
 70
     0
  3
Chain ____ _ ____ _ ____ _ ____ _ ____ _ ____
 72
    65
 73
     4
 40
0.3543
 49
0.2362
 74
     0
 49
-0.0295
 74
     0
 49
0.0591
 74
     0
 49
-0.0295
 74
     0
  0
LTYPE
  5
7F
330
5
100
AcDbSymbolTableRecord
100
AcDbLinetypeTableRecord
  2
DASH_DOT
 70
     0
  3
Dash dot _._._._._._._._._._._._._._._.
 72
    65
 73
     4
 40
0.37
 49
0.24
 74
     0
 49
-0.06
 74
     0
 49
0.01
 74
     0
 49
-0.06
 74
     0
  0
LTYPE
  5
80
330
5
100
AcDbSymbolTableRecord
100
AcDbLinetypeTableRecord
  2
DASH_DOUBLE_DOT
 70
     0
  3
Dash Double Dot __ __ . __ __ . __ __ . __ _
 72
    65
 73
     6
 40
0.4398
 49
0.24
 74
     0
 49
-0.06
 74
     0
 49
0.0098
 74
     0
 49
-0.06
 74
     0
 49
0.01
 74
     0
 49
-0.06
 74
     0
  0
LTYPE
  5
81
330
5
100
AcDbSymbolTableRecord
100
AcDbLinetypeTableRecord
  2
DASH_TRIPLE_DOT
 70
     0
  3
Dash Triple-Dot _ . . . _ . . . _ . . . _
 72
    65
 73
     8
 40
0.51
 49
0.24
 74
     0
 49
-0.06
 74
     0
 49
0.01
 74
     0
 49
-0.06
 74
     0
 49
0.01
 74
     0
 49
-0.06
 74
     0
 49
0.01
 74
     0
 49
-0.06
 74
     0
  0
LTYPE
  5
82
330
5
100
AcDbSymbolTableRecord
100
AcDbLinetypeTableRecord
  2
DASHED
 70
     0
  3
Dashed __ __ __ __ __ __ __ __ __ __ __ __ __ _
 72
    65
 73
     2
 40
0.2067
 49
0.1654
 74
     0
 49
-0.0413
 74
     0
  0
LTYPE
  5
83
330
5
100
AcDbSymbolTableRecord
100
AcDbLinetypeTableRecord
  2
DASHED_SPACE
 70
     0
  3
Dashed Space _._._._._._._._._._._._._._._.
 72
    65
 73
     2
 40
0.2067
 49
0.1654
 74
     0
 49
-0.0413
 74
     0
  0
LTYPE
  5
84
330
5
100
AcDbSymbolTableRecord
100
AcDbLinetypeTableRecord
  2
DOTTED
 70
     0
  3
Dotted . . . . . . . . . . . . . . . . . . . . 
 72
    65
 73
     2
 40
0.0482
 49
0.0069
 74
     0
 49
-0.0413
 74
     0
  0
LTYPE
  5
85
330
5
100
AcDbSymbolTableRecord
100
AcDbLinetypeTableRecord
  2
DOUBLE_DASH_CHAIN
 70
     0
  3
Double Dash Chain ___ _ _ ___ _ _ ___ _ _ ___ _
 72
    65
 73
     6
 40
1.240299999999999
 49
0.6614
 74
     0
 49
-0.0827
 74
     0
 49
0.1654
 74
     0
 49
-0.0827
 74
     0
 49
0.1654
 74
     0
 49
-0.0827
 74
     0
  0
LTYPE
  5
86
330
5
100
AcDbSymbolTableRecord
100
AcDbLinetypeTableRecord
  2
DOUBLE_DASH_DOT
 70
     0
  3
Double Dash Dot __ __ . __ __ . __ __ . __ _
 72
    65
 73
     6
 40
0.67
 49
0.24
 74
     0
 49
-0.06
 74
     0
 49
0.24
 74
     0
 49
-0.06
 74
     0
 49
0.01
 74
     0
 49
-0.06
 74
     0
  0
LTYPE
  5
87
330
5
100
AcDbSymbolTableRecord
100
AcDbLinetypeTableRecord
  2
DOUBLE_DASH_DOUBLE_DOT
 70
     0
  3
Double-dash double-dot _ _ . . _ _ . . _
 72
    65
 73
     8
 40
0.7400000000000001
 49
0.24
 74
     0
 49
-0.06
 74
     0
 49
0.24
 74
     0
 49
-0.06
 74
     0
 49
0.01
 74
     0
 49
-0.06
 74
     0
 49
0.01
 74
     0
 49
-0.06
 74
     0
  0
LTYPE
  5
88
330
5
100
AcDbSymbolTableRecord
100
AcDbLinetypeTableRecord
  2
DOUBLE_DASH_TRIPLE_DOT
 70
     0
  3
Double Dash Triple Dot __ __ . . . __ __ . . .
 72
    65
 73
    10
 40
0.8100000000000001
 49
0.24
 74
     0
 49
-0.06
 74
     0
 49
0.24
 74
     0
 49
-0.06
 74
     0
 49
0.01
 74
     0
 49
-0.06
 74
     0
 49
0.01
 74
     0
 49
-0.06
 74
     0
 49
0.01
 74
     0
 49
-0.06
 74
     0
  0
LTYPE
  5
89
330
5
100
AcDbSymbolTableRecord
100
AcDbLinetypeTableRecord
  2
LONG_DASH_DOTTED
 70
     0
  3
Long-Dash Dot ____ . ____ . ____ . ____ . _
 72
    65
 73
     4
 40
0.3001
 49
0.2362
 74
     0
 49
-0.0295
 74
     0
 49
0.0049
 74
     0
 49
-0.0295
 74
     0
  0
LTYPE
  5
8A
330
5
100
AcDbSymbolTableRecord
100
AcDbLinetypeTableRecord
  2
LONG_DASH_DOUBLE_DOT
 70
     0
  3
Long Dash Double Dot ____ . . ____ . . ____ . .
 72
    65
 73
     6
 40
0.3345
 49
0.2362
 74
     0
 49
-0.0295
 74
     0
 49
0.0049
 74
     0
 49
-0.0295
 74
     0
 49
0.0049
 74
     0
 49
-0.0295
 74
     0
  0
LTYPE
  5
8B
330
5
100
AcDbSymbolTableRecord
100
AcDbLinetypeTableRecord
  2
LONG_DASH_TRIPLE_DOT
 70
     0
  3
Long Dash Triple Dot ____ ... ____ ... ____
 72
    65
 73
     8
 40
0.75
 49
0.48
 74
     0
 49
-0.06
 74
     0
 49
0.01
 74
     0
 49
-0.06
 74
     0
 49
0.01
 74
     0
 49
-0.06
 74
     0
 49
0.01
 74
     0
 49
-0.06
 74
     0
  0
LTYPE
  5
8C
330
5
100
AcDbSymbolTableRecord
100
AcDbLinetypeTableRecord
  2
BORDER
 70
     0
  3
Border __ __ . __ __ . __ __ . __ __ . __ __ .
 72
    65
 73
     6
 40
44.45
 49
12.7
 74
     0
 49
-6.349999999999999
 74
     0
 49
12.7
 74
     0
 49
-6.349999999999999
 74
     0
 49
0.0
 74
     0
 49
-6.349999999999999
 74
     0
  0
LTYPE
  5
8D
330
5
100
AcDbSymbolTableRecord
100
AcDbLinetypeTableRecord
  2
BORDER2
 70
     0
  3
Border (.5x) __.__.__.__.__.__.__.__.__.__.__.
 72
    65
 73
     6
 40
22.225
 49
6.349999999999999
 74
     0
 49
-3.174999999999999
 74
     0
 49
6.349999999999999
 74
     0
 49
-3.174999999999999
 74
     0
 49
0.0
 74
     0
 49
-3.174999999999999
 74
     0
  0
LTYPE
  5
8E
330
5
100
AcDbSymbolTableRecord
100
AcDbLinetypeTableRecord
  2
BORDERX2
 70
     0
  3
Border (2x) ____  ____  .  ____  ____  .  ___
 72
    65
 73
     6
 40
88.9
 49
25.4
 74
     0
 49
-12.7
 74
     0
 49
25.4
 74
     0
 49
-12.7
 74
     0
 49
0.0
 74
     0
 49
-12.7
 74
     0
  0
LTYPE
  5
8F
330
5
100
AcDbSymbolTableRecord
100
AcDbLinetypeTableRecord
  2
CENTER
 70
     0
  3
Center ____ _ ____ _ ____ _ ____ _ ____ _ ____
 72
    65
 73
     4
 40
50.8
 49
31.75
 74
     0
 49
-6.349999999999999
 74
     0
 49
6.349999999999999
 74
     0
 49
-6.349999999999999
 74
     0
  0
LTYPE
  5
90
330
5
100
AcDbSymbolTableRecord
100
AcDbLinetypeTableRecord
  2
CENTER2
 70
     0
  3
Center (.5x) ___ _ ___ _ ___ _ ___ _ ___ _ ___
 72
    65
 73
     4
 40
28.575
 49
19.05
 74
     0
 49
-3.174999999999999
 74
     0
 49
3.174999999999999
 74
     0
 49
-3.174999999999999
 74
     0
  0
LTYPE
  5
91
330
5
100
AcDbSymbolTableRecord
100
AcDbLinetypeTableRecord
  2
CENTERX2
 70
     0
  3
Center (2x) ________  __  ________  __  _____
 72
    65
 73
     4
 40
101.6
 49
63.5
 74
     0
 49
-12.7
 74
     0
 49
12.7
 74
     0
 49
-12.7
 74
     0
  0
LTYPE
  5
92
330
5
100
AcDbSymbolTableRecord
100
AcDbLinetypeTableRecord
  2
DASHDOT2
 70
     0
  3
Dash dot (.5x) _._._._._._._._._._._._._._._.
 72
    65
 73
     4
 40
12.7
 49
6.349999999999999
 74
     0
 49
-3.174999999999999
 74
     0
 49
0.0
 74
     0
 49
-3.174999999999999
 74
     0
  0
LTYPE
  5
93
330
5
100
AcDbSymbolTableRecord
100
AcDbLinetypeTableRecord
  2
DASHDOTX2
 70
     0
  3
Dash dot (2x) ____  .  ____  .  ____  .  ___
 72
    65
 73
     4
 40
50.8
 49
25.4
 74
     0
 49
-12.7
 74
     0
 49
0.0
 74
     0
 49
-12.7
 74
     0
  0
LTYPE
  5
94
330
5
100
AcDbSymbolTableRecord
100
AcDbLinetypeTableRecord
  2
DASHED2
 70
     0
  3
Dashed (.5x) _ _ _ _ _ _ _ _ _ _ _ _ _ _ _ _ _
 72
    65
 73
     2
 40
9.524999999999998
 49
6.349999999999999
 74
     0
 49
-3.174999999999999
 74
     0
  0
LTYPE
  5
95
330
5
100
AcDbSymbolTableRecord
100
AcDbLinetypeTableRecord
  2
DASHEDX2
 70
     0
  3
Dashed (2x) ____  ____  ____  ____  ____  ___
 72
    65
 73
     2
 40
38.1
 49
25.4
 74
     0
 49
-12.7
 74
     0
  0
LTYPE
  5
96
330
5
100
AcDbSymbolTableRecord
100
AcDbLinetypeTableRecord
  2
DIVIDE
 70
     0
  3
Divide ____ . . ____ . . ____ . . ____ . . ____
 72
    65
 73
     6
 40
31.75
 49
12.7
 74
     0
 49
-6.349999999999999
 74
     0
 49
0.0
 74
     0
 49
-6.349999999999999
 74
     0
 49
0.0
 74
     0
 49
-6.349999999999999
 74
     0
  0
LTYPE
  5
97
330
5
100
AcDbSymbolTableRecord
100
AcDbLinetypeTableRecord
  2
DIVIDE2
 70
     0
  3
Divide (.5x) __..__..__..__..__..__..__..__.._
 72
    65
 73
     6
 40
15.875
 49
6.349999999999999
 74
     0
 49
-3.174999999999999
 74
     0
 49
0.0
 74
     0
 49
-3.174999999999999
 74
     0
 49
0.0
 74
     0
 49
-3.174999999999999
 74
     0
  0
LTYPE
  5
98
330
5
100
AcDbSymbolTableRecord
100
AcDbLinetypeTableRecord
  2
DIVIDEX2
 70
     0
  3
Divide (2x) ________  .  .  ________  .  .  _
 72
    65
 73
     6
 40
63.49999999999999
 49
25.4
 74
     0
 49
-12.7
 74
     0
 49
0.0
 74
     0
 49
-12.7
 74
     0
 49
0.0
 74
     0
 49
-12.7
 74
     0
  0
LTYPE
  5
99
330
5
100
AcDbSymbolTableRecord
100
AcDbLinetypeTableRecord
  2
DOT
 70
     0
  3
Dot . . . . . . . . . . . . . . . . . . . . . .
 72
    65
 73
     2
 40
6.349999999999999
 49
0.0
 74
     0
 49
-6.349999999999999
 74
     0
  0
LTYPE
  5
9A
330
5
100
AcDbSymbolTableRecord
100
AcDbLinetypeTableRecord
  2
DOT2
 70
     0
  3
Dot (.5x) .....................................
 72
    65
 73
     2
 40
3.174999999999999
 49
0.0
 74
     0
 49
-3.174999999999999
 74
     0
  0
LTYPE
  5
9B
330
5
100
AcDbSymbolTableRecord
100
AcDbLinetypeTableRecord
  2
DOTX2
 70
     0
  3
Dot (2x) .  .  .  .  .  .  .  .  .  .  .  .  . 
 72
    65
 73
     2
 40
12.7
 49
0.0
 74
     0
 49
-12.7
 74
     0
  0
LTYPE
  5
9C
330
5
100
AcDbSymbolTableRecord
100
AcDbLinetypeTableRecord
  2
HIDDEN
 70
     0
  3
Hidden __ __ __ __ __ __ __ __ __ __ __ __ __ _
 72
    65
 73
     2
 40
9.524999999999998
 49
6.349999999999999
 74
     0
 49
-3.174999999999999
 74
     0
  0
LTYPE
  5
9D
330
5
100
AcDbSymbolTableRecord
100
AcDbLinetypeTableRecord
  2
HIDDEN2
 70
     0
  3
Hidden (.5x) _ _ _ _ _ _ _ _ _ _ _ _ _ _ _ _ _
 72
    65
 73
     2
 40
4.762499999999999
 49
3.174999999999999
 74
     0
 49
-1.587499999999999
 74
     0
  0
LTYPE
  5
9E
330
5
100
AcDbSymbolTableRecord
100
AcDbLinetypeTableRecord
  2
HIDDENX2
 70
     0
  3
Hidden (2x) ____ ____ ____ ____ ____ ____ ____
 72
    65
 73
     2
 40
19.05
 49
12.7
 74
     0
 49
-6.349999999999999
 74
     0
  0
LTYPE
  5
9F
330
5
100
AcDbSymbolTableRecord
100
AcDbLinetypeTableRecord
  2
PHANTOM
 70
     0
  3
Phantom ______  __  __  ______  __  __  ______
 72
    65
 73
     6
 40
63.5
 49
31.75
 74
     0
 49
-6.349999999999999
 74
     0
 49
6.349999999999999
 74
     0
 49
-6.349999999999999
 74
     0
 49
6.349999999999999
 74
     0
 49
-6.349999999999999
 74
     0
  0
LTYPE
  5
A0
330
5
100
AcDbSymbolTableRecord
100
AcDbLinetypeTableRecord
  2
PHANTOM2
 70
     0
  3
Phantom (.5x) ___ _ _ ___ _ _ ___ _ _ ___ _ _
 72
    65
 73
     6
 40
31.75
 49
15.875
 74
     0
 49
-3.174999999999999
 74
     0
 49
3.174999999999999
 74
     0
 49
-3.174999999999999
 74
     0
 49
3.174999999999999
 74
     0
 49
-3.174999999999999
 74
     0
  0
LTYPE
  5
A1
330
5
100
AcDbSymbolTableRecord
100
AcDbLinetypeTableRecord
  2
PHANTOMX2
 70
     0
  3
Phantom (2x) ____________    ____    ____   _
 72
    65
 73
     6
 40
127.0
 49
63.5
 74
     0
 49
-12.7
 74
     0
 49
12.7
 74
     0
 49
-12.7
 74
     0
 49
12.7
 74
     0
 49
-12.7
 74
     0
  0
LTYPE
  5
A2
330
5
100
AcDbSymbolTableRecord
100
AcDbLinetypeTableRecord
  2
ACAD_ISO02W100
 70
     0
  3
ISO dash __ __ __ __ __ __ __ __ __ __ __ __ __
 72
    65
 73
     2
 40
15.0
 49
12.0
 74
     0
 49
-3.0
 74
     0
  0
LTYPE
  5
A3
330
5
100
AcDbSymbolTableRecord
100
AcDbLinetypeTableRecord
  2
ACAD_ISO03W100
 70
     0
  3
ISO dash space __    __    __    __    __    __
 72
    65
 73
     2
 40
30.0
 49
12.0
 74
     0
 49
-18.0
 74
     0
  0
LTYPE
  5
A4
330
5
100
AcDbSymbolTableRecord
100
AcDbLinetypeTableRecord
  2
ACAD_ISO04W100
 70
     0
  3
ISO long-dash dot ____ . ____ . ____ . ____ . _
 72
    65
 73
     4
 40
30.0
 49
24.0
 74
     0
 49
-3.0
 74
     0
 49
0.0
 74
     0
 49
-3.0
 74
     0
  0
LTYPE
  5
A5
330
5
100
AcDbSymbolTableRecord
100
AcDbLinetypeTableRecord
  2
ACAD_ISO05W100
 70
     0
  3
ISO long-dash double-dot ____ .. ____ .. ____ .
 72
    65
 73
     6
 40
33.0
 49
24.0
 74
     0
 49
-3.0
 74
     0
 49
0.0
 74
     0
 49
-3.0
 74
     0
 49
0.0
 74
     0
 49
-3.0
 74
     0
  0
LTYPE
  5
A6
330
5
100
AcDbSymbolTableRecord
100
AcDbLinetypeTableRecord
  2
ACAD_ISO06W100
 70
     0
  3
ISO long-dash triple-dot ____ ... ____ ... ____
 72
    65
 73
     8
 40
36.0
 49
24.0
 74
     0
 49
-3.0
 74
     0
 49
0.0
 74
     0
 49
-3.0
 74
     0
 49
0.0
 74
     0
 49
-3.0
 74
     0
 49
0.0
 74
     0
 49
-3.0
 74
     0
  0
LTYPE
  5
A7
330
5
100
AcDbSymbolTableRecord
100
AcDbLinetypeTableRecord
  2
ACAD_ISO07W100
 70
     0
  3
ISO dot . . . . . . . . . . . . . . . . . . . .
 72
    65
 73
     2
 40
3.0
 49
0.0
 74
     0
 49
-3.0
 74
     0
  0
LTYPE
  5
A8
330
5
100
AcDbSymbolTableRecord
100
AcDbLinetypeTableRecord
  2
ACAD_ISO08W100
 70
     0
  3
ISO long-dash short-dash ____ __ ____ __ ____ _
 72
    65
 73
     4
 40
36.0
 49
24.0
 74
     0
 49
-3.0
 74
     0
 49
6.0
 74
     0
 49
-3.0
 74
     0
  0
LTYPE
  5
A9
330
5
100
AcDbSymbolTableRecord
100
AcDbLinetypeTableRecord
  2
ACAD_ISO09W100
 70
     0
  3
ISO long-dash double-short-dash ____ __ __ ____
 72
    65
 73
     6
 40
45.0
 49
24.0
 74
     0
 49
-3.0
 74
     0
 49
6.0
 74
     0
 49
-3.0
 74
     0
 49
6.0
 74
     0
 49
-3.0
 74
     0
  0
LTYPE
  5
AA
330
5
100
AcDbSymbolTableRecord
100
AcDbLinetypeTableRecord
  2
ACAD_ISO10W100
 70
     0
  3
ISO dash dot __ . __ . __ . __ . __ . __ . __ .
 72
    65
 73
     4
 40
18.0
 49
12.0
 74
     0
 49
-3.0
 74
     0
 49
0.0
 74
     0
 49
-3.0
 74
     0
  0
LTYPE
  5
AB
330
5
100
AcDbSymbolTableRecord
100
AcDbLinetypeTableRecord
  2
ACAD_ISO11W100
 70
     0
  3
ISO double-dash dot __ __ . __ __ . __ __ . __ 
 72
    65
 73
     6
 40
33.0
 49
12.0
 74
     0
 49
-3.0
 74
     0
 49
12.0
 74
     0
 49
-3.0
 74
     0
 49
0.0
 74
     0
 49
-3.0
 74
     0
  0
LTYPE
  5
AC
330
5
100
AcDbSymbolTableRecord
100
AcDbLinetypeTableRecord
  2
ACAD_ISO12W100
 70
     0
  3
ISO dash double-dot __ . . __ . . __ . . __ . .
 72
    65
 73
     6
 40
21.0
 49
12.0
 74
     0
 49
-3.0
 74
     0
 49
0.0
 74
     0
 49
-3.0
 74
     0
 49
0.0
 74
     0
 49
-3.0
 74
     0
  0
LTYPE
  5
AD
330
5
100
AcDbSymbolTableRecord
100
AcDbLinetypeTableRecord
  2
ACAD_ISO13W100
 70
     0
  3
ISO double-dash double-dot __ __ . . __ __ . . 
 72
    65
 73
     8
 40
36.0
 49
12.0
 74
     0
 49
-3.0
 74
     0
 49
12.0
 74
     0
 49
-3.0
 74
     0
 49
0.0
 74
     0
 49
-3.0
 74
     0
 49
0.0
 74
     0
 49
-3.0
 74
     0
  0
LTYPE
  5
AE
330
5
100
AcDbSymbolTableRecord
100
AcDbLinetypeTableRecord
  2
ACAD_ISO14W100
 70
     0
  3
ISO dash triple-dot __ . . . __ . . . __ . . . 
 72
    65
 73
     8
 40
24.0
 49
12.0
 74
     0
 49
-3.0
 74
     0
 49
0.0
 74
     0
 49
-3.0
 74
     0
 49
0.0
 74
     0
 49
-3.0
 74
     0
 49
0.0
 74
     0
 49
-3.0
 74
     0
  0
LTYPE
  5
AF
330
5
100
AcDbSymbolTableRecord
100
AcDbLinetypeTableRecord
  2
ACAD_ISO15W100
 70
     0
  3
ISO double-dash triple-dot __ __ . . . __ __ . 
 72
    65
 73
    10
 40
39.0
 49
12.0
 74
     0
 49
-3.0
 74
     0
 49
12.0
 74
     0
 49
-3.0
 74
     0
 49
0.0
 74
     0
 49
-3.0
 74
     0
 49
0.0
 74
     0
 49
-3.0
 74
     0
 49
0.0
 74
     0
 49
-3.0
 74
     0
  0
LTYPE
  5
B2
330
5
100
AcDbSymbolTableRecord
100
AcDbLinetypeTableRecord
  2
FENCELINE1
 70
     0
  3
Fenceline circle ----0-----0----0-----0----0---
 72
    65
 73
     4
 40
36.83
 49
6.349999999999999
 74
     0
 49
-2.54
 74
     4
 75
   133
340
B1
 46
2.54
 50
0.0
 44
-2.54
 45
0.0
 49
-2.54
 74
     0
 49
25.4
 74
     0
  0
LTYPE
  5
B3
330
5
100
AcDbSymbolTableRecord
100
AcDbLinetypeTableRecord
  2
FENCELINE2
 70
     0
  3
Fenceline square ----[]-----[]----[]-----[]----
 72
    65
 73
     4
 40
36.83
 49
6.349999999999999
 74
     0
 49
-2.54
 74
     4
 75
   132
340
B1
 46
2.54
 50
0.0
 44
-2.54
 45
0.0
 49
-2.54
 74
     0
 49
25.4
 74
     0
  0
LTYPE
  5
B4
330
5
100
AcDbSymbolTableRecord
100
AcDbLinetypeTableRecord
  2
TRACKS
 70
     0
  3
Tracks -|-|-|-|-|-|-|-|-|-|-|-|-|-|-|-|-|-|-|-|
 72
    65
 73
     2
 40
7.62
 49
3.81
 74
     4
 75
   130
340
B1
 46
6.349999999999999
 50
0.0
 44
0.0
 45
0.0
 49
3.81
 74
     0
  0
LTYPE
  5
B5
330
5
100
AcDbSymbolTableRecord
100
AcDbLinetypeTableRecord
  2
BATTING
 70
     0
  3
Batting SSSSSSSSSSSSSSSSSSSSSSSSSSSSSSSSSSSSSSS
 72
    65
 73
     4
 40
10.16254
 49
0.00254
 74
     0
 49
-2.54
 74
     4
 75
   134
340
B1
 46
2.54
 50
0.0
 44
-2.54
 45
0.0
 49
-5.08
 74
     4
 75
   134
340
B1
 46
2.54
 50
180.0
 44
2.54
 45
0.0
 49
-2.54
 74
     0
  0
LTYPE
  5
B6
330
5
100
AcDbSymbolTableRecord
100
AcDbLinetypeTableRecord
  2
HOT_WATER_SUPPLY
 70
     0
  3
Hot water supply ---- HW ---- HW ---- HW ----
 72
    65
 73
     3
 40
22.86
 49
12.7
 74
     0
 49
-5.08
 74
     2
 75
     0
340
5D
 46
2.54
 50
0.0
 44
-2.54
 45
-1.27
  9
HW
 49
-5.08
 74
     0
  0
LTYPE
  5
B7
330
5
100
AcDbSymbolTableRecord
100
AcDbLinetypeTableRecord
  2
GAS_LINE
 70
     0
  3
Gas line ----GAS----GAS----GAS----GAS----GAS---
 72
    65
 73
     3
 40
24.13
 49
12.7
 74
     0
 49
-5.08
 74
     2
 75
     0
340
5D
 46
2.54
 50
0.0
 44
-2.54
 45
-1.27
  9
GAS
 49
-6.349999999999999
 74
     0
  0
LTYPE
  5
B8
330
5
100
AcDbSymbolTableRecord
100
AcDbLinetypeTableRecord
  2
ZIGZAG
 70
     0
  3
Zig zag /\/\/\/\/\/\/\/\/\/\/\/\/\/\/\/\/\/\/\/
 72
    65
 73
     4
 40
20.32254
 49
0.00254
 74
     0
 49
-5.08
 74
     4
 75
   131
340
B1
 46
5.08
 50
0.0
 44
-5.08
 45
0.0
 49
-10.16
 74
     4
 75
   131
340
B1
 46
5.08
 50
180.0
 44
5.08
 45
0.0
 49
-5.08
 74
     0
  0
ENDTAB
  0
TABLE
  2
LAYER
  5
2
330
0
100
AcDbSymbolTable
 70
    26
  0
LAYER
  5
5C
330
2
100
AcDbSymbolTableRecord
100
AcDbLayerTableRecord
  2
0
 70
     0
 62
     7
  6
Continuous
370
    -3
390
F
  0
LAYER
  5
CA
330
2
100
AcDbSymbolTableRecord
100
AcDbLayerTableRecord
  2
Sichtbar MD
 70
     0
 62
     7
  6
Continuous
370
    35
390
F
  0
ENDTAB
  0
TABLE
  2
STYLE
  5
3
330
0
100
AcDbSymbolTable
 70
     3
  0
STYLE
  5
5D
330
3
100
AcDbSymbolTableRecord
100
AcDbTextStyleTableRecord
  2
Standard
 70
     0
 40
0.0
 41
1.0
 50
0.0
 71
     0
 42
0.2
  3
isocpeur.ttf
  4

1001
ACAD
1000
ISOCPEUR
1071
      256
  0
STYLE
  5
62
330
3
100
AcDbSymbolTableRecord
100
AcDbTextStyleTableRecord
  2
Annotative
 70
     0
 40
0.0
 41
1.0
 50
0.0
 71
     0
 42
0.2
  3

  4

1001
AcadAnnotative
1000
AnnotativeData
1002
{
1070
     1
1070
     1
1002
}
  0
STYLE
  5
B1
330
3
100
AcDbSymbolTableRecord
100
AcDbTextStyleTableRecord
  2

 70
     1
 40
0.0
 41
1.0
 50
0.0
 71
     0
 42
0.2
  3
ltypeshp.shx
  4

  0
ENDTAB
  0
TABLE
  2
VIEW
  5
6
330
0
100
AcDbSymbolTable
 70
     0
  0
ENDTAB
  0
TABLE
  2
UCS
  5
7
330
0
100
AcDbSymbolTable
 70
     0
  0
ENDTAB
  0
TABLE
  2
APPID
  5
9
330
0
100
AcDbSymbolTable
 70
     3
  0
APPID
  5
5E
330
9
100
AcDbSymbolTableRecord
100
AcDbRegAppTableRecord
  2
ACAD
 70
     0
  0
APPID
  5
66
330
9
100
AcDbSymbolTableRecord
100
AcDbRegAppTableRecord
  2
AcadAnnotative
 70
     0
  0
APPID
  5
70
330
9
100
AcDbSymbolTableRecord
100
AcDbRegAppTableRecord
  2
ACAD_MLEADERVER
 70
     0
  0
ENDTAB
  0
TABLE
  2
DIMSTYLE
  5
A
330
0
100
AcDbSymbolTable
 70
     2
100
AcDbDimStyleTable
 71
     0
  0
DIMSTYLE
105
60
330
A
100
AcDbSymbolTableRecord
100
AcDbDimStyleTableRecord
  2
Standard
 70
     0
340
5D
  0
DIMSTYLE
105
61
330
A
100
AcDbSymbolTableRecord
100
AcDbDimStyleTableRecord
  2
Annotative
 70
     0
340
5D
1001
AcadAnnotative
1000
AnnotativeData
1002
{
1070
     1
1070
     1
1002
}
  0
ENDTAB
  0
TABLE
  2
BLOCK_RECORD
  5
1
330
0
100
AcDbSymbolTable
 70
     1
  0
BLOCK_RECORD
  5
75
330
1
100
AcDbSymbolTableRecord
100
AcDbBlockTableRecord
  2
*Model_Space
340
78
  0
BLOCK_RECORD
  5
71
330
1
100
AcDbSymbolTableRecord
100
AcDbBlockTableRecord
  2
*Paper_Space
340
74
  0
BLOCK_RECORD
  5
79
330
1
100
AcDbSymbolTableRecord
100
AcDbBlockTableRecord
  2
*Paper_Space0
340
7C
  0
ENDTAB
  0
ENDSEC
  0
SECTION
  2
BLOCKS
  0
BLOCK
  5
76
330
75
100
AcDbEntity
  8
0
100
AcDbBlockBegin
  2
*Model_Space
 70
     0
 10
0.0
 20
0.0
 30
0.0
  3
*Model_Space
  1

  0
ENDBLK
  5
77
330
75
100
AcDbEntity
  8
0
100
AcDbBlockEnd
  0
BLOCK
  5
72
330
71
100
AcDbEntity
 67
     1
  8
0
100
AcDbBlockBegin
  2
*Paper_Space
 70
     0
 10
0.0
 20
0.0
 30
0.0
  3
*Paper_Space
  1

  0
ENDBLK
  5
73
330
71
100
AcDbEntity
 67
     1
  8
0
100
AcDbBlockEnd
  0
BLOCK
  5
7A
330
79
100
AcDbEntity
 67
     1
  8
0
100
AcDbBlockBegin
  2
*Paper_Space0
 70
     0
 10
0.0
 20
0.0
 30
0.0
  3
*Paper_Space0
  1

  0
ENDBLK
  5
7B
330
79
100
AcDbEntity
 67
     1
  8
0
100
AcDbBlockEnd
  0
ENDSEC
  0
SECTION
  2
ENTITIES
  0
LINE
  5
D2
330
75
100
AcDbEntity
  8
Sichtbar MD
100
AcDbLine
 10
28.86924238899699
 20
124.7470191130422
 30
0.0
 11
38.86924238899695
 21
124.7470191130423
 31
0.0
  0
LINE
  5
D3
330
75
100
AcDbEntity
  8
Sichtbar MD
100
AcDbLine
 10
38.86924238899697
 20
116.2617377388037
 30
0.0
 11
28.86924238899699
 21
116.2617377388037
 31
0.0
  0
LINE
  5
D4
330
75
100
AcDbEntity
  8
Sichtbar MD
100
AcDbLine
 10
28.86924238899699
 20
124.7470191130423
 30
0.0
 11
28.86924238899699
 21
116.2617377388037
 31
0.0
  0
LINE
  5
D5
330
75
100
AcDbEntity
  8
Sichtbar MD
100
AcDbLine
 10
38.86924238899696
 20
116.2617377388037
 30
0.0
 11
38.86924238899696
 21
124.7470191130423
 31
0.0
  0
LINE
  5
D6
330
75
100
AcDbEntity
  8
Sichtbar MD
100
AcDbLine
 10
15.86924238899701
 20
111.504378425923
 30
0.0
 11
15.86924238899701
 21
129.5043784259229
 31
0.0
  0
ARC
  5
D7
330
75
100
AcDbEntity
  8
Sichtbar MD
100
AcDbCircle
 10
16.36924238899702
 20
111.504378425923
 30
0.0
 40
0.4999999999999987
100
AcDbArc
 50
180.0
 51
270.0
  0
ARC
  5
D8
330
75
100
AcDbEntity
  8
Sichtbar MD
100
AcDbCircle
 10
16.36924238899702
 20
129.5043784259229
 30
0.0
 40
0.4999999999999986
100
AcDbArc
 50
89.99999999999975
 51
180.0
  0
LINE
  5
D9
330
75
100
AcDbEntity
  8
Sichtbar MD
100
AcDbLine
 10
16.36924238899702
 20
130.0043784259229
 30
0.0
 11
56.76924238899681
 21
130.004378425923
 31
0.0
  0
LINE
  5
DA
330
75
100
AcDbEntity
  8
Sichtbar MD
100
AcDbLine
 10
65.76924238899677
 20
130.004378425923
 30
0.0
 11
65.8692423889968
 21
130.004378425923
 31
0.0
  0
LINE
  5
DB
330
75
100
AcDbEntity
  8
Sichtbar MD
100
AcDbLine
 10
16.36924238899702
 20
111.004378425923
 30
0.0
 11
56.76924238899681
 21
111.004378425923
 31
0.0
  0
LINE
  5
DC
330
75
100
AcDbEntity
  8
Sichtbar MD
100
AcDbLine
 10
65.76924238899677
 20
111.004378425923
 30
0.0
 11
65.8692423889968
 21
111.004378425923
 31
0.0
  0
POLYLINE
  5
DD
330
75
100
AcDbEntity
  8
Sichtbar MD
100
AcDb2dPolyline
 66
     1
 10
0.0
 20
0.0
 30
0.0
 70
   128
  0
VERTEX
  5
DE
330
DD
100
AcDbEntity
  8
Sichtbar MD
100
AcDbVertex
100
AcDb2dVertex
 10
256.4465928147171
 20
109.5528366795673
 30
0.0
  0
VERTEX
  5
DF
330
DD
100
AcDbEntity
  8
Sichtbar MD
100
AcDbVertex
100
AcDb2dVertex
 10
256.3987022707794
 20
109.6542602823756
 30
0.0
  0
VERTEX
  5
E1
330
DD
100
AcDbEntity
  8
Sichtbar MD
100
AcDbVertex
100
AcDb2dVertex
 10
256.353033787999
 20
109.7547946973451
 30
0.0
  0
VERTEX
  5
E2
330
DD
100
AcDbEntity
  8
Sichtbar MD
100
AcDbVertex
100
AcDb2dVertex
 10
256.3095551798676
 20
109.8544948787898
 30
0.0
  0
VERTEX
  5
E3
330
DD
100
AcDbEntity
  8
Sichtbar MD
100
AcDbVertex
100
AcDb2dVertex
 10
256.2682366440628
 20
109.9534132000665
 30
0.0
  0
VERTEX
  5
E4
330
DD
100
AcDbEntity
  8
Sichtbar MD
100
AcDbVertex
100
AcDb2dVertex
 10
256.2290513584946
 20
110.0516034447931
 30
0.0
  0
VERTEX
  5
E5
330
DD
100
AcDbEntity
  8
Sichtbar MD
100
AcDbVertex
100
AcDb2dVertex
 10
256.1919736931656
 20
110.1491161611265
 30
0.0
  0
VERTEX
  5
E6
330
DD
100
AcDbEntity
  8
Sichtbar MD
100
AcDbVertex
100
AcDb2dVertex
 10
256.1569815943573
 20
110.2460028497509
 30
0.0
  0
VERTEX
  5
E7
330
DD
100
AcDbEntity
  8
Sichtbar MD
100
AcDbVertex
100
AcDb2dVertex
 10
256.1240547964905
 20
110.3423131062955
 30
0.0
  0
VERTEX
  5
E8
330
DD
100
AcDbEntity
  8
Sichtbar MD
100
AcDbVertex
100
AcDb2dVertex
 10
256.0931742260788
 20
110.4380965263892
 30
0.0
  0
VERTEX
  5
E9
330
DD
100
AcDbEntity
  8
Sichtbar MD
100
AcDbVertex
100
AcDb2dVertex
 10
256.0643231938217
 20
110.5334019713017
 30
0.0
  0
VERTEX
  5
EA
330
DD
100
AcDbEntity
  8
Sichtbar MD
100
AcDbVertex
100
AcDb2dVertex
 10
256.0374885866974
 20
110.6282770517516
 30
0.0
  0
VERTEX
  5
EB
330
DD
100
AcDbEntity
  8
Sichtbar MD
100
AcDbVertex
100
AcDb2dVertex
 10
256.012657291684
 20
110.7227710068868
 30
0.0
  0
VERTEX
  5
EC
330
DD
100
AcDbEntity
  8
Sichtbar MD
100
AcDbVertex
100
AcDb2dVertex
 10
255.9898191759919
 20
110.8169301170201
 30
0.0
  0
VERTEX
  5
ED
330
DD
100
AcDbEntity
  8
Sichtbar MD
100
AcDbVertex
100
AcDb2dVertex
 10
255.9689658949707
 20
110.9108023707483
 30
0.0
  0
VERTEX
  5
EE
330
DD
100
AcDbEntity
  8
Sichtbar MD
100
AcDbVertex
100
AcDb2dVertex
 10
255.9500920842026
 20
111.0044341282393
 30
0.0
  0
VERTEX
  5
EF
330
DD
100
AcDbEntity
  8
Sichtbar MD
100
AcDbVertex
100
AcDb2dVertex
 10
255.9331923792694
 20
111.0978733780902
 30
0.0
  0
VERTEX
  5
F0
330
DD
100
AcDbEntity
  8
Sichtbar MD
100
AcDbVertex
100
AcDb2dVertex
 10
255.9182655880783
 20
111.1911667784919
 30
0.0
  0
VERTEX
  5
F1
330
DD
100
AcDbEntity
  8
Sichtbar MD
100
AcDbVertex
100
AcDb2dVertex
 10
255.9053105185364
 20
111.284361721995
 30
0.0
  0
VERTEX
  5
F2
330
DD
100
AcDbEntity
  8
Sichtbar MD
100
AcDbVertex
100
AcDb2dVertex
 10
255.8943295548294
 20
111.3775048667904
 30
0.0
  0
VERTEX
  5
F3
330
DD
100
AcDbEntity
  8
Sichtbar MD
100
AcDbVertex
100
AcDb2dVertex
 10
255.8853268692825
 20
111.4706442014753
 30
0.0
  0
VERTEX
  5
F4
330
DD
100
AcDbEntity
  8
Sichtbar MD
100
AcDbVertex
100
AcDb2dVertex
 10
255.8783072302674
 20
111.5638272569132
 30
0.0
  0
VERTEX
  5
F5
330
DD
100
AcDbEntity
  8
Sichtbar MD
100
AcDbVertex
100
AcDb2dVertex
 10
255.8732795784806
 20
111.6571025378925
 30
0.0
  0
VERTEX
  5
F6
330
DD
100
AcDbEntity
  8
Sichtbar MD
100
AcDbVertex
100
AcDb2dVertex
 10
255.8702540467117
 20
111.7505183096362
 30
0.0
  0
VERTEX
  5
F7
330
DD
100
AcDbEntity
  8
Sichtbar MD
100
AcDbVertex
100
AcDb2dVertex
 10
255.8692425558899
 20
111.8441244657967
 30
0.0
  0
SEQEND
  5
E0
330
DD
100
AcDbEntity
  8
Sichtbar MD
  0
LINE
  5
F8
330
75
100
AcDbEntity
  8
Sichtbar MD
100
AcDbLine
 10
256.4465926581866
 20
109.5528365406006
 30
0.0
 11
256.4465926581866
 21
109.5043784259229
 31
0.0
  0
POLYLINE
  5
F9
330
75
100
AcDbEntity
  8
Sichtbar MD
100
AcDb2dPolyline
 66
     1
 10
0.0
 20
0.0
 30
0.0
 70
   128
  0
VERTEX
  5
FA
330
F9
100
AcDbEntity
  8
Sichtbar MD
100
AcDbVertex
100
AcDb2dVertex
 10
255.8692425558899
 20
111.8441244657967
 30
0.0
  0
VERTEX
  5
FB
330
F9
100
AcDbEntity
  8
Sichtbar MD
100
AcDbVertex
100
AcDb2dVertex
 10
255.8702540467117
 20
111.9377303638615
 30
0.0
  0
VERTEX
  5
FD
330
F9
100
AcDbEntity
  8
Sichtbar MD
100
AcDbVertex
100
AcDb2dVertex
 10
255.8732795784806
 20
112.0311463937009
 30
0.0
  0
VERTEX
  5
FE
330
F9
100
AcDbEntity
  8
Sichtbar MD
100
AcDbVertex
100
AcDb2dVertex
 10
255.8783072302674
 20
112.1244216347526
 30
0.0
  0
VERTEX
  5
FF
330
F9
100
AcDbEntity
  8
Sichtbar MD
100
AcDbVertex
100
AcDb2dVertex
 10
255.8853268692825
 20
112.217604730118
 30
0.0
  0
VERTEX
  5
100
330
F9
100
AcDbEntity
  8
Sichtbar MD
100
AcDbVertex
100
AcDb2dVertex
 10
255.8943295548294
 20
112.3107440248754
 30
0.0
  0
VERTEX
  5
101
330
F9
100
AcDbEntity
  8
Sichtbar MD
100
AcDbVertex
100
AcDb2dVertex
 10
255.9053105185364
 20
112.4038872095984
 30
0.0
  0
VERTEX
  5
102
330
F9
100
AcDbEntity
  8
Sichtbar MD
100
AcDbVertex
100
AcDb2dVertex
 10
255.9182655880783
 20
112.4970818950058
 30
0.0
  0
VERTEX
  5
103
330
F9
100
AcDbEntity
  8
Sichtbar MD
100
AcDbVertex
100
AcDb2dVertex
 10
255.9331923792694
 20
112.5903752954075
 30
0.0
  0
VERTEX
  5
104
330
F9
100
AcDbEntity
  8
Sichtbar MD
100
AcDbVertex
100
AcDb2dVertex
 10
255.9500920842026
 20
112.6838142472351
 30
0.0
  0
VERTEX
  5
105
330
F9
100
AcDbEntity
  8
Sichtbar MD
100
AcDbVertex
100
AcDb2dVertex
 10
255.9689658949707
 20
112.7774468189407
 30
0.0
  0
VERTEX
  5
106
330
F9
100
AcDbEntity
  8
Sichtbar MD
100
AcDbVertex
100
AcDb2dVertex
 10
255.9898191759919
 20
112.8713188145733
 30
0.0
  0
VERTEX
  5
107
330
F9
100
AcDbEntity
  8
Sichtbar MD
100
AcDbVertex
100
AcDb2dVertex
 10
256.012657291684
 20
112.9654779247065
 30
0.0
  0
VERTEX
  5
108
330
F9
100
AcDbEntity
  8
Sichtbar MD
100
AcDbVertex
100
AcDb2dVertex
 10
256.0374885866974
 20
113.0599713237228
 30
0.0
  0
VERTEX
  5
109
330
F9
100
AcDbEntity
  8
Sichtbar MD
100
AcDbVertex
100
AcDb2dVertex
 10
256.0643231938217
 20
113.1548466622684
 30
0.0
  0
VERTEX
  5
10A
330
F9
100
AcDbEntity
  8
Sichtbar MD
100
AcDbVertex
100
AcDb2dVertex
 10
256.0931742260788
 20
113.2501524052041
 30
0.0
  0
VERTEX
  5
10B
330
F9
100
AcDbEntity
  8
Sichtbar MD
100
AcDbVertex
100
AcDb2dVertex
 10
256.1240547964905
 20
113.34593569625
 30
0.0
  0
VERTEX
  5
10C
330
F9
100
AcDbEntity
  8
Sichtbar MD
100
AcDbVertex
100
AcDb2dVertex
 10
256.1569815943573
 20
113.4422460818424
 30
0.0
  0
VERTEX
  5
10D
330
F9
100
AcDbEntity
  8
Sichtbar MD
100
AcDbVertex
100
AcDb2dVertex
 10
256.1919736931656
 20
113.5391323433958
 30
0.0
  0
VERTEX
  5
10E
330
F9
100
AcDbEntity
  8
Sichtbar MD
100
AcDbVertex
100
AcDb2dVertex
 10
256.2290513584946
 20
113.6366457448959
 30
0.0
  0
VERTEX
  5
10F
330
F9
100
AcDbEntity
  8
Sichtbar MD
100
AcDbVertex
100
AcDb2dVertex
 10
256.2682366440628
 20
113.7348356024791
 30
0.0
  0
VERTEX
  5
110
330
F9
100
AcDbEntity
  8
Sichtbar MD
100
AcDbVertex
100
AcDb2dVertex
 10
256.3095551798676
 20
113.8337541818514
 30
0.0
  0
VERTEX
  5
111
330
F9
100
AcDbEntity
  8
Sichtbar MD
100
AcDbVertex
100
AcDb2dVertex
 10
256.353033787999
 20
113.9334541052004
 30
0.0
  0
VERTEX
  5
112
330
F9
100
AcDbEntity
  8
Sichtbar MD
100
AcDbVertex
100
AcDb2dVertex
 10
256.3987022707794
 20
114.0339882221467
 30
0.0
  0
VERTEX
  5
113
330
F9
100
AcDbEntity
  8
Sichtbar MD
100
AcDbVertex
100
AcDb2dVertex
 10
256.4465928147171
 20
114.1354123165499
 30
0.0
  0
SEQEND
  5
FC
330
F9
100
AcDbEntity
  8
Sichtbar MD
  0
LINE
  5
114
330
75
100
AcDbEntity
  8
Sichtbar MD
100
AcDbLine
 10
256.4465926581866
 20
115.9218027309671
 30
0.0
 11
256.4465926581866
 21
114.1354122355565
 31
0.0
  0
POLYLINE
  5
115
330
75
100
AcDbEntity
  8
Sichtbar MD
100
AcDb2dPolyline
 66
     1
 10
0.0
 20
0.0
 30
0.0
 70
   128
  0
VERTEX
  5
116
330
115
100
AcDbEntity
  8
Sichtbar MD
100
AcDbVertex
100
AcDb2dVertex
 10
256.4465928147171
 20
115.9218028730798
 30
0.0
  0
VERTEX
  5
117
330
115
100
AcDbEntity
  8
Sichtbar MD
100
AcDbVertex
100
AcDb2dVertex
 10
256.3987022707794
 20
116.1246502310328
 30
0.0
  0
VERTEX
  5
119
330
115
100
AcDbEntity
  8
Sichtbar MD
100
AcDbVertex
100
AcDb2dVertex
 10
256.353033787999
 20
116.3257195023218
 30
0.0
  0
VERTEX
  5
11A
330
115
100
AcDbEntity
  8
Sichtbar MD
100
AcDbVertex
100
AcDb2dVertex
 10
256.3095551798676
 20
116.5251189228937
 30
0.0
  0
VERTEX
  5
11B
330
115
100
AcDbEntity
  8
Sichtbar MD
100
AcDbVertex
100
AcDb2dVertex
 10
256.2682366440628
 20
116.7229561786424
 30
0.0
  0
VERTEX
  5
11C
330
115
100
AcDbEntity
  8
Sichtbar MD
100
AcDbVertex
100
AcDb2dVertex
 10
256.2290513584946
 20
116.9193363438427
 30
0.0
  0
VERTEX
  5
11D
330
115
100
AcDbEntity
  8
Sichtbar MD
100
AcDbVertex
100
AcDb2dVertex
 10
256.1919736931656
 20
117.1143617521025
 30
0.0
  0
VERTEX
  5
11E
330
115
100
AcDbEntity
  8
Sichtbar MD
100
AcDbVertex
100
AcDb2dVertex
 10
256.1569815943573
 20
117.3081353637382
 30
0.0
  0
VERTEX
  5
11F
330
115
100
AcDbEntity
  8
Sichtbar MD
100
AcDbVertex
100
AcDb2dVertex
 10
256.1240547964905
 20
117.5007561264516
 30
0.0
  0
VERTEX
  5
120
330
115
100
AcDbEntity
  8
Sichtbar MD
100
AcDbVertex
100
AcDb2dVertex
 10
256.0931742260788
 20
117.6923228895586
 30
0.0
  0
VERTEX
  5
121
330
115
100
AcDbEntity
  8
Sichtbar MD
100
AcDbVertex
100
AcDb2dVertex
 10
256.0643231938217
 20
117.882933479258
 30
0.0
  0
VERTEX
  5
122
330
115
100
AcDbEntity
  8
Sichtbar MD
100
AcDbVertex
100
AcDb2dVertex
 10
256.0374885866974
 20
118.0726845111248
 30
0.0
  0
VERTEX
  5
123
330
115
100
AcDbEntity
  8
Sichtbar MD
100
AcDbVertex
100
AcDb2dVertex
 10
256.012657291684
 20
118.2616715376893
 30
0.0
  0
VERTEX
  5
124
330
115
100
AcDbEntity
  8
Sichtbar MD
100
AcDbVertex
100
AcDb2dVertex
 10
255.9898191759919
 20
118.4499898933136
 30
0.0
  0
VERTEX
  5
125
330
115
100
AcDbEntity
  8
Sichtbar MD
100
AcDbVertex
100
AcDb2dVertex
 10
255.9689658949707
 20
118.6377338400493
 30
0.0
  0
VERTEX
  5
126
330
115
100
AcDbEntity
  8
Sichtbar MD
100
AcDbVertex
100
AcDb2dVertex
 10
255.9500920842026
 20
118.8249981561397
 30
0.0
  0
VERTEX
  5
127
330
115
100
AcDbEntity
  8
Sichtbar MD
100
AcDbVertex
100
AcDb2dVertex
 10
255.9331923792695
 20
119.0118769253959
 30
0.0
  0
VERTEX
  5
128
330
115
100
AcDbEntity
  8
Sichtbar MD
100
AcDbVertex
100
AcDb2dVertex
 10
255.9182655880784
 20
119.1984635158001
 30
0.0
  0
VERTEX
  5
129
330
115
100
AcDbEntity
  8
Sichtbar MD
100
AcDbVertex
100
AcDb2dVertex
 10
255.9053105185364
 20
119.384853043546
 30
0.0
  0
VERTEX
  5
12A
330
115
100
AcDbEntity
  8
Sichtbar MD
100
AcDbVertex
100
AcDb2dVertex
 10
255.8943295548294
 20
119.5711392145667
 30
0.0
  0
VERTEX
  5
12B
330
115
100
AcDbEntity
  8
Sichtbar MD
100
AcDbVertex
100
AcDb2dVertex
 10
255.8853268692826
 20
119.7574179193429
 30
0.0
  0
VERTEX
  5
12C
330
115
100
AcDbEntity
  8
Sichtbar MD
100
AcDbVertex
100
AcDb2dVertex
 10
255.8783072302674
 20
119.9437839361179
 30
0.0
  0
VERTEX
  5
12D
330
115
100
AcDbEntity
  8
Sichtbar MD
100
AcDbVertex
100
AcDb2dVertex
 10
255.8732795784806
 20
120.1303344857787
 30
0.0
  0
VERTEX
  5
12E
330
115
100
AcDbEntity
  8
Sichtbar MD
100
AcDbVertex
100
AcDb2dVertex
 10
255.8702540467118
 20
120.3171664911888
 30
0.0
  0
VERTEX
  5
12F
330
115
100
AcDbEntity
  8
Sichtbar MD
100
AcDbVertex
100
AcDb2dVertex
 10
255.8692425558899
 20
120.5043785036411
 30
0.0
  0
SEQEND
  5
118
330
115
100
AcDbEntity
  8
Sichtbar MD
  0
POLYLINE
  5
130
330
75
100
AcDbEntity
  8
Sichtbar MD
100
AcDb2dPolyline
 66
     1
 10
0.0
 20
0.0
 30
0.0
 70
   128
  0
VERTEX
  5
131
330
130
100
AcDbEntity
  8
Sichtbar MD
100
AcDbVertex
100
AcDb2dVertex
 10
255.8692425558899
 20
120.5043785036411
 30
0.0
  0
VERTEX
  5
132
330
130
100
AcDbEntity
  8
Sichtbar MD
100
AcDbVertex
100
AcDb2dVertex
 10
255.8702540467118
 20
120.6915907741891
 30
0.0
  0
VERTEX
  5
134
330
130
100
AcDbEntity
  8
Sichtbar MD
100
AcDbVertex
100
AcDb2dVertex
 10
255.8732795784806
 20
120.8784225215035
 30
0.0
  0
VERTEX
  5
135
330
130
100
AcDbEntity
  8
Sichtbar MD
100
AcDbVertex
100
AcDb2dVertex
 10
255.8783072302674
 20
121.0649725150453
 30
0.0
  0
VERTEX
  5
136
330
130
100
AcDbEntity
  8
Sichtbar MD
100
AcDbVertex
100
AcDb2dVertex
 10
255.8853268692826
 20
121.2513390879392
 30
0.0
  0
VERTEX
  5
137
330
130
100
AcDbEntity
  8
Sichtbar MD
100
AcDbVertex
100
AcDb2dVertex
 10
255.8943295548294
 20
121.4376172365966
 30
0.0
  0
VERTEX
  5
138
330
130
100
AcDbEntity
  8
Sichtbar MD
100
AcDbVertex
100
AcDb2dVertex
 10
255.9053105185364
 20
121.6239039637361
 30
0.0
  0
VERTEX
  5
139
330
130
100
AcDbEntity
  8
Sichtbar MD
100
AcDbVertex
100
AcDb2dVertex
 10
255.9182655880784
 20
121.8102937495778
 30
0.0
  0
VERTEX
  5
13A
330
130
100
AcDbEntity
  8
Sichtbar MD
100
AcDbVertex
100
AcDb2dVertex
 10
255.9331923792695
 20
121.9968803399819
 30
0.0
  0
VERTEX
  5
13B
330
130
100
AcDbEntity
  8
Sichtbar MD
100
AcDbVertex
100
AcDb2dVertex
 10
255.9500920842026
 20
122.1837588112149
 30
0.0
  0
VERTEX
  5
13C
330
130
100
AcDbEntity
  8
Sichtbar MD
100
AcDbVertex
100
AcDb2dVertex
 10
255.9689658949707
 20
122.3710229091372
 30
0.0
  0
VERTEX
  5
13D
330
130
100
AcDbEntity
  8
Sichtbar MD
100
AcDbVertex
100
AcDb2dVertex
 10
255.9898191759919
 20
122.5587671139686
 30
0.0
  0
VERTEX
  5
13E
330
130
100
AcDbEntity
  8
Sichtbar MD
100
AcDbVertex
100
AcDb2dVertex
 10
256.012657291684
 20
122.7470854695928
 30
0.0
  0
VERTEX
  5
13F
330
130
100
AcDbEntity
  8
Sichtbar MD
100
AcDbVertex
100
AcDb2dVertex
 10
256.0374885866974
 20
122.9360724562298
 30
0.0
  0
VERTEX
  5
140
330
130
100
AcDbEntity
  8
Sichtbar MD
100
AcDbVertex
100
AcDb2dVertex
 10
256.0643231938217
 20
123.125823230001
 30
0.0
  0
VERTEX
  5
141
330
130
100
AcDbEntity
  8
Sichtbar MD
100
AcDbVertex
100
AcDb2dVertex
 10
256.0931742260788
 20
123.3164341177235
 30
0.0
  0
VERTEX
  5
142
330
130
100
AcDbEntity
  8
Sichtbar MD
100
AcDbVertex
100
AcDb2dVertex
 10
256.1240547964905
 20
123.5080010098784
 30
0.0
  0
VERTEX
  5
143
330
130
100
AcDbEntity
  8
Sichtbar MD
100
AcDbVertex
100
AcDb2dVertex
 10
256.1569815943573
 20
123.7006216435439
 30
0.0
  0
VERTEX
  5
144
330
130
100
AcDbEntity
  8
Sichtbar MD
100
AcDbVertex
100
AcDb2dVertex
 10
256.1919736931656
 20
123.8943950862043
 30
0.0
  0
VERTEX
  5
145
330
130
100
AcDbEntity
  8
Sichtbar MD
100
AcDbVertex
100
AcDb2dVertex
 10
256.2290513584946
 20
124.0894204053438
 30
0.0
  0
VERTEX
  5
146
330
130
100
AcDbEntity
  8
Sichtbar MD
100
AcDbVertex
100
AcDb2dVertex
 10
256.2682366440628
 20
124.2858009576876
 30
0.0
  0
VERTEX
  5
147
330
130
100
AcDbEntity
  8
Sichtbar MD
100
AcDbVertex
100
AcDb2dVertex
 10
256.3095551798676
 20
124.4836379553407
 30
0.0
  0
VERTEX
  5
148
330
130
100
AcDbEntity
  8
Sichtbar MD
100
AcDbVertex
100
AcDb2dVertex
 10
256.353033787999
 20
124.6830376340082
 30
0.0
  0
VERTEX
  5
149
330
130
100
AcDbEntity
  8
Sichtbar MD
100
AcDbVertex
100
AcDb2dVertex
 10
256.3987022707794
 20
124.884106607274
 30
0.0
  0
VERTEX
  5
14A
330
130
100
AcDbEntity
  8
Sichtbar MD
100
AcDbVertex
100
AcDb2dVertex
 10
256.4465928147171
 20
125.0869540696785
 30
0.0
  0
SEQEND
  5
133
330
130
100
AcDbEntity
  8
Sichtbar MD
  0
LINE
  5
14B
330
75
100
AcDbEntity
  8
Sichtbar MD
100
AcDbLine
 10
256.4465926581866
 20
126.8733446162894
 30
0.0
 11
256.4465926581866
 21
125.0869541208788
 31
0.0
  0
POLYLINE
  5
14C
330
75
100
AcDbEntity
  8
Sichtbar MD
100
AcDb2dPolyline
 66
     1
 10
0.0
 20
0.0
 30
0.0
 70
   128
  0
VERTEX
  5
14D
330
14C
100
AcDbEntity
  8
Sichtbar MD
100
AcDbVertex
100
AcDb2dVertex
 10
256.4465928147171
 20
126.8733446839593
 30
0.0
  0
VERTEX
  5
14E
330
14C
100
AcDbEntity
  8
Sichtbar MD
100
AcDbVertex
100
AcDb2dVertex
 10
256.3987022707794
 20
126.974768394544
 30
0.0
  0
VERTEX
  5
150
330
14C
100
AcDbEntity
  8
Sichtbar MD
100
AcDbVertex
100
AcDb2dVertex
 10
256.353033787999
 20
127.0753029528401
 30
0.0
  0
VERTEX
  5
151
330
14C
100
AcDbEntity
  8
Sichtbar MD
100
AcDbVertex
100
AcDb2dVertex
 10
256.3095551798676
 20
127.1750027480863
 30
0.0
  0
VERTEX
  5
152
330
14C
100
AcDbEntity
  8
Sichtbar MD
100
AcDbVertex
100
AcDb2dVertex
 10
256.2682366440628
 20
127.273921275451
 30
0.0
  0
VERTEX
  5
153
330
14C
100
AcDbEntity
  8
Sichtbar MD
100
AcDbVertex
100
AcDb2dVertex
 10
256.2290513584946
 20
127.372111285045
 30
0.0
  0
VERTEX
  5
154
330
14C
100
AcDbEntity
  8
Sichtbar MD
100
AcDbVertex
100
AcDb2dVertex
 10
256.1919736931656
 20
127.4696241858743
 30
0.0
  0
VERTEX
  5
155
330
14C
100
AcDbEntity
  8
Sichtbar MD
100
AcDbVertex
100
AcDb2dVertex
 10
256.1569815943573
 20
127.5665109399102
 30
0.0
  0
VERTEX
  5
156
330
14C
100
AcDbEntity
  8
Sichtbar MD
100
AcDbVertex
100
AcDb2dVertex
 10
256.1240547964905
 20
127.6628213170312
 30
0.0
  0
VERTEX
  5
157
330
14C
100
AcDbEntity
  8
Sichtbar MD
100
AcDbVertex
100
AcDb2dVertex
 10
256.0931742260788
 20
127.7586046400807
 30
0.0
  0
VERTEX
  5
158
330
14C
100
AcDbEntity
  8
Sichtbar MD
100
AcDbVertex
100
AcDb2dVertex
 10
256.0643231938217
 20
127.8539099338792
 30
0.0
  0
VERTEX
  5
159
330
14C
100
AcDbEntity
  8
Sichtbar MD
100
AcDbVertex
100
AcDb2dVertex
 10
256.0374885866974
 20
127.9487854781888
 30
0.0
  0
VERTEX
  5
15A
330
14C
100
AcDbEntity
  8
Sichtbar MD
100
AcDbVertex
100
AcDb2dVertex
 10
256.012657291684
 20
128.0432790312312
 30
0.0
  0
VERTEX
  5
15B
330
14C
100
AcDbEntity
  8
Sichtbar MD
100
AcDbVertex
100
AcDb2dVertex
 10
255.9898191759919
 20
128.1374381277107
 30
0.0
  0
VERTEX
  5
15C
330
14C
100
AcDbEntity
  8
Sichtbar MD
100
AcDbVertex
100
AcDb2dVertex
 10
255.9689658949707
 20
128.2313102278255
 30
0.0
  0
VERTEX
  5
15D
330
14C
100
AcDbEntity
  8
Sichtbar MD
100
AcDbVertex
100
AcDb2dVertex
 10
255.9500920842026
 20
128.3249423447393
 30
0.0
  0
VERTEX
  5
15E
330
14C
100
AcDbEntity
  8
Sichtbar MD
100
AcDbVertex
100
AcDb2dVertex
 10
255.9331923792694
 20
128.4183815661214
 30
0.0
  0
VERTEX
  5
15F
330
14C
100
AcDbEntity
  8
Sichtbar MD
100
AcDbVertex
100
AcDb2dVertex
 10
255.9182655880783
 20
128.5116749796413
 30
0.0
  0
VERTEX
  5
160
330
14C
100
AcDbEntity
  8
Sichtbar MD
100
AcDbVertex
100
AcDb2dVertex
 10
255.9053105185364
 20
128.6048696729682
 30
0.0
  0
VERTEX
  5
161
330
14C
100
AcDbEntity
  8
Sichtbar MD
100
AcDbVertex
100
AcDb2dVertex
 10
255.8943295548294
 20
128.6980128827833
 30
0.0
  0
VERTEX
  5
162
330
14C
100
AcDbEntity
  8
Sichtbar MD
100
AcDbVertex
100
AcDb2dVertex
 10
255.8853268692825
 20
128.7911521437905
 30
0.0
  0
VERTEX
  5
163
330
14C
100
AcDbEntity
  8
Sichtbar MD
100
AcDbVertex
100
AcDb2dVertex
 10
255.8783072302674
 20
128.8843352700911
 30
0.0
  0
VERTEX
  5
164
330
14C
100
AcDbEntity
  8
Sichtbar MD
100
AcDbVertex
100
AcDb2dVertex
 10
255.8732795784806
 20
128.9776104669414
 30
0.0
  0
VERTEX
  5
165
330
14C
100
AcDbEntity
  8
Sichtbar MD
100
AcDbVertex
100
AcDb2dVertex
 10
255.8702540467117
 20
129.0710264331989
 30
0.0
  0
VERTEX
  5
166
330
14C
100
AcDbEntity
  8
Sichtbar MD
100
AcDbVertex
100
AcDb2dVertex
 10
255.8692425558899
 20
129.1646324637674
 30
0.0
  0
SEQEND
  5
14F
330
14C
100
AcDbEntity
  8
Sichtbar MD
  0
POLYLINE
  5
167
330
75
100
AcDbEntity
  8
Sichtbar MD
100
AcDb2dPolyline
 66
     1
 10
0.0
 20
0.0
 30
0.0
 70
   128
  0
VERTEX
  5
168
330
167
100
AcDbEntity
  8
Sichtbar MD
100
AcDbVertex
100
AcDb2dVertex
 10
255.8692425558899
 20
129.1646324637674
 30
0.0
  0
VERTEX
  5
169
330
167
100
AcDbEntity
  8
Sichtbar MD
100
AcDbVertex
100
AcDb2dVertex
 10
255.8702540467117
 20
129.2582384943358
 30
0.0
  0
VERTEX
  5
16B
330
167
100
AcDbEntity
  8
Sichtbar MD
100
AcDbVertex
100
AcDb2dVertex
 10
255.8732795784806
 20
129.3516544605933
 30
0.0
  0
VERTEX
  5
16C
330
167
100
AcDbEntity
  8
Sichtbar MD
100
AcDbVertex
100
AcDb2dVertex
 10
255.8783072302674
 20
129.4449296574436
 30
0.0
  0
VERTEX
  5
16D
330
167
100
AcDbEntity
  8
Sichtbar MD
100
AcDbVertex
100
AcDb2dVertex
 10
255.8853268692825
 20
129.5381127837442
 30
0.0
  0
VERTEX
  5
16E
330
167
100
AcDbEntity
  8
Sichtbar MD
100
AcDbVertex
100
AcDb2dVertex
 10
255.8943295548294
 20
129.6312520447515
 30
0.0
  0
VERTEX
  5
16F
330
167
100
AcDbEntity
  8
Sichtbar MD
100
AcDbVertex
100
AcDb2dVertex
 10
255.9053105185364
 20
129.7243952545665
 30
0.0
  0
VERTEX
  5
170
330
167
100
AcDbEntity
  8
Sichtbar MD
100
AcDbVertex
100
AcDb2dVertex
 10
255.9182655880783
 20
129.8175899478934
 30
0.0
  0
VERTEX
  5
171
330
167
100
AcDbEntity
  8
Sichtbar MD
100
AcDbVertex
100
AcDb2dVertex
 10
255.9331923792694
 20
129.9108833614133
 30
0.0
  0
VERTEX
  5
172
330
167
100
AcDbEntity
  8
Sichtbar MD
100
AcDbVertex
100
AcDb2dVertex
 10
255.9500920842026
 20
130.0043225827955
 30
0.0
  0
VERTEX
  5
173
330
167
100
AcDbEntity
  8
Sichtbar MD
100
AcDbVertex
100
AcDb2dVertex
 10
255.9689658949707
 20
130.0979546997093
 30
0.0
  0
VERTEX
  5
174
330
167
100
AcDbEntity
  8
Sichtbar MD
100
AcDbVertex
100
AcDb2dVertex
 10
255.9898191759919
 20
130.1918267998241
 30
0.0
  0
VERTEX
  5
175
330
167
100
AcDbEntity
  8
Sichtbar MD
100
AcDbVertex
100
AcDb2dVertex
 10
256.012657291684
 20
130.2859858963035
 30
0.0
  0
VERTEX
  5
176
330
167
100
AcDbEntity
  8
Sichtbar MD
100
AcDbVertex
100
AcDb2dVertex
 10
256.0374885866974
 20
130.3804794493459
 30
0.0
  0
VERTEX
  5
177
330
167
100
AcDbEntity
  8
Sichtbar MD
100
AcDbVertex
100
AcDb2dVertex
 10
256.0643231938217
 20
130.4753549936555
 30
0.0
  0
VERTEX
  5
178
330
167
100
AcDbEntity
  8
Sichtbar MD
100
AcDbVertex
100
AcDb2dVertex
 10
256.0931742260788
 20
130.570660287454
 30
0.0
  0
VERTEX
  5
179
330
167
100
AcDbEntity
  8
Sichtbar MD
100
AcDbVertex
100
AcDb2dVertex
 10
256.1240547964905
 20
130.6664436105035
 30
0.0
  0
VERTEX
  5
17A
330
167
100
AcDbEntity
  8
Sichtbar MD
100
AcDbVertex
100
AcDb2dVertex
 10
256.1569815943573
 20
130.7627539876245
 30
0.0
  0
VERTEX
  5
17B
330
167
100
AcDbEntity
  8
Sichtbar MD
100
AcDbVertex
100
AcDb2dVertex
 10
256.1919736931656
 20
130.8596407416604
 30
0.0
  0
VERTEX
  5
17C
330
167
100
AcDbEntity
  8
Sichtbar MD
100
AcDbVertex
100
AcDb2dVertex
 10
256.2290513584946
 20
130.9571536424897
 30
0.0
  0
VERTEX
  5
17D
330
167
100
AcDbEntity
  8
Sichtbar MD
100
AcDbVertex
100
AcDb2dVertex
 10
256.2682366440628
 20
131.0553436520837
 30
0.0
  0
VERTEX
  5
17E
330
167
100
AcDbEntity
  8
Sichtbar MD
100
AcDbVertex
100
AcDb2dVertex
 10
256.3095551798676
 20
131.1542621794484
 30
0.0
  0
VERTEX
  5
17F
330
167
100
AcDbEntity
  8
Sichtbar MD
100
AcDbVertex
100
AcDb2dVertex
 10
256.353033787999
 20
131.2539619746946
 30
0.0
  0
VERTEX
  5
180
330
167
100
AcDbEntity
  8
Sichtbar MD
100
AcDbVertex
100
AcDb2dVertex
 10
256.3987022707794
 20
131.3544965329908
 30
0.0
  0
VERTEX
  5
181
330
167
100
AcDbEntity
  8
Sichtbar MD
100
AcDbVertex
100
AcDb2dVertex
 10
256.4465928147171
 20
131.4559202435754
 30
0.0
  0
SEQEND
  5
16A
330
167
100
AcDbEntity
  8
Sichtbar MD
  0
LINE
  5
182
330
75
100
AcDbEntity
  8
Sichtbar MD
100
AcDbLine
 10
256.4465926581866
 20
131.504378425923
 30
0.0
 11
256.4465926581866
 21
131.4559203112453
 31
0.0
  0
POLYLINE
  5
183
330
75
100
AcDbEntity
  8
Sichtbar MD
100
AcDb2dPolyline
 66
     1
 10
0.0
 20
0.0
 30
0.0
 70
   128
  0
VERTEX
  5
184
330
183
100
AcDbEntity
  8
Sichtbar MD
100
AcDbVertex
100
AcDb2dVertex
 10
260.7918918202255
 20
131.4559202435754
 30
0.0
  0
VERTEX
  5
185
330
183
100
AcDbEntity
  8
Sichtbar MD
100
AcDbVertex
100
AcDb2dVertex
 10
260.8397817681168
 20
131.3544965329907
 30
0.0
  0
VERTEX
  5
187
330
183
100
AcDbEntity
  8
Sichtbar MD
100
AcDbVertex
100
AcDb2dVertex
 10
260.8854508469437
 20
131.2539619746945
 30
0.0
  0
VERTEX
  5
188
330
183
100
AcDbEntity
  8
Sichtbar MD
100
AcDbVertex
100
AcDb2dVertex
 10
260.9289300511215
 20
131.1542621794484
 30
0.0
  0
VERTEX
  5
189
330
183
100
AcDbEntity
  8
Sichtbar MD
100
AcDbVertex
100
AcDb2dVertex
 10
260.9702479908798
 20
131.0553436520837
 30
0.0
  0
VERTEX
  5
18A
330
183
100
AcDbEntity
  8
Sichtbar MD
100
AcDbVertex
100
AcDb2dVertex
 10
261.0094332764481
 20
130.9571536424897
 30
0.0
  0
VERTEX
  5
18B
330
183
100
AcDbEntity
  8
Sichtbar MD
100
AcDbVertex
100
AcDb2dVertex
 10
261.046510941777
 20
130.8596407416604
 30
0.0
  0
VERTEX
  5
18C
330
183
100
AcDbEntity
  8
Sichtbar MD
100
AcDbVertex
100
AcDb2dVertex
 10
261.0815024445389
 20
130.7627539876245
 30
0.0
  0
VERTEX
  5
18D
330
183
100
AcDbEntity
  8
Sichtbar MD
100
AcDbVertex
100
AcDb2dVertex
 10
261.1144304344986
 20
130.6664436105035
 30
0.0
  0
VERTEX
  5
18E
330
183
100
AcDbEntity
  8
Sichtbar MD
100
AcDbVertex
100
AcDb2dVertex
 10
261.1453104088639
 20
130.5706602874539
 30
0.0
  0
VERTEX
  5
18F
330
183
100
AcDbEntity
  8
Sichtbar MD
100
AcDbVertex
100
AcDb2dVertex
 10
261.1741614411209
 20
130.4753549936555
 30
0.0
  0
VERTEX
  5
190
330
183
100
AcDbEntity
  8
Sichtbar MD
100
AcDbVertex
100
AcDb2dVertex
 10
261.2009966442917
 20
130.3804794493459
 30
0.0
  0
VERTEX
  5
191
330
183
100
AcDbEntity
  8
Sichtbar MD
100
AcDbVertex
100
AcDb2dVertex
 10
261.2258279393051
 20
130.2859858963035
 30
0.0
  0
VERTEX
  5
192
330
183
100
AcDbEntity
  8
Sichtbar MD
100
AcDbVertex
100
AcDb2dVertex
 10
261.2486660549973
 20
130.1918267998241
 30
0.0
  0
VERTEX
  5
193
330
183
100
AcDbEntity
  8
Sichtbar MD
100
AcDbVertex
100
AcDb2dVertex
 10
261.2695193360184
 20
130.0979546997092
 30
0.0
  0
VERTEX
  5
194
330
183
100
AcDbEntity
  8
Sichtbar MD
100
AcDbVertex
100
AcDb2dVertex
 10
261.2883925507401
 20
130.0043225827954
 30
0.0
  0
VERTEX
  5
195
330
183
100
AcDbEntity
  8
Sichtbar MD
100
AcDbVertex
100
AcDb2dVertex
 10
261.3052928517197
 20
129.9108833614133
 30
0.0
  0
VERTEX
  5
196
330
183
100
AcDbEntity
  8
Sichtbar MD
100
AcDbVertex
100
AcDb2dVertex
 10
261.3202190468643
 20
129.8175899478934
 30
0.0
  0
VERTEX
  5
197
330
183
100
AcDbEntity
  8
Sichtbar MD
100
AcDbVertex
100
AcDb2dVertex
 10
261.3331747124527
 20
129.7243952545665
 30
0.0
  0
VERTEX
  5
198
330
183
100
AcDbEntity
  8
Sichtbar MD
100
AcDbVertex
100
AcDb2dVertex
 10
261.3441550801133
 20
129.6312520447514
 30
0.0
  0
VERTEX
  5
199
330
183
100
AcDbEntity
  8
Sichtbar MD
100
AcDbVertex
100
AcDb2dVertex
 10
261.3531577656601
 20
129.5381127837441
 30
0.0
  0
VERTEX
  5
19A
330
183
100
AcDbEntity
  8
Sichtbar MD
100
AcDbVertex
100
AcDb2dVertex
 10
261.3601780007217
 20
129.4449296574436
 30
0.0
  0
VERTEX
  5
19B
330
183
100
AcDbEntity
  8
Sichtbar MD
100
AcDbVertex
100
AcDb2dVertex
 10
261.3652050564621
 20
129.3516544605933
 30
0.0
  0
VERTEX
  5
19C
330
183
100
AcDbEntity
  8
Sichtbar MD
100
AcDbVertex
100
AcDb2dVertex
 10
261.3682305882309
 20
129.2582384943358
 30
0.0
  0
VERTEX
  5
19D
330
183
100
AcDbEntity
  8
Sichtbar MD
100
AcDbVertex
100
AcDb2dVertex
 10
261.3692426750992
 20
129.1646324637673
 30
0.0
  0
SEQEND
  5
186
330
183
100
AcDbEntity
  8
Sichtbar MD
  0
LINE
  5
19E
330
75
100
AcDbEntity
  8
Sichtbar MD
100
AcDbLine
 10
261.3692423889969
 20
130.5043784259229
 30
0.0
 11
261.3692423889969
 21
129.1646324637673
 31
0.0
  0
LINE
  5
19F
330
75
100
AcDbEntity
  8
Sichtbar MD
100
AcDbLine
 10
260.7918921198073
 20
131.4559203112453
 30
0.0
 11
260.7918921198073
 21
131.504378425923
 31
0.0
  0
POLYLINE
  5
1A0
330
75
100
AcDbEntity
  8
Sichtbar MD
100
AcDb2dPolyline
 66
     1
 10
0.0
 20
0.0
 30
0.0
 70
   128
  0
VERTEX
  5
1A1
330
1A0
100
AcDbEntity
  8
Sichtbar MD
100
AcDbVertex
100
AcDb2dVertex
 10
260.7918918202255
 20
125.0869540696784
 30
0.0
  0
VERTEX
  5
1A2
330
1A0
100
AcDbEntity
  8
Sichtbar MD
100
AcDbVertex
100
AcDb2dVertex
 10
260.8397817681168
 20
124.884106607274
 30
0.0
  0
VERTEX
  5
1A4
330
1A0
100
AcDbEntity
  8
Sichtbar MD
100
AcDbVertex
100
AcDb2dVertex
 10
260.8854508469437
 20
124.6830376340082
 30
0.0
  0
VERTEX
  5
1A5
330
1A0
100
AcDbEntity
  8
Sichtbar MD
100
AcDbVertex
100
AcDb2dVertex
 10
260.9289300511215
 20
124.4836379553406
 30
0.0
  0
VERTEX
  5
1A6
330
1A0
100
AcDbEntity
  8
Sichtbar MD
100
AcDbVertex
100
AcDb2dVertex
 10
260.9702479908798
 20
124.2858009576876
 30
0.0
  0
VERTEX
  5
1A7
330
1A0
100
AcDbEntity
  8
Sichtbar MD
100
AcDbVertex
100
AcDb2dVertex
 10
261.0094332764481
 20
124.0894204053438
 30
0.0
  0
VERTEX
  5
1A8
330
1A0
100
AcDbEntity
  8
Sichtbar MD
100
AcDbVertex
100
AcDb2dVertex
 10
261.046510941777
 20
123.8943950862043
 30
0.0
  0
VERTEX
  5
1A9
330
1A0
100
AcDbEntity
  8
Sichtbar MD
100
AcDbVertex
100
AcDb2dVertex
 10
261.0815024445389
 20
123.7006216435439
 30
0.0
  0
VERTEX
  5
1AA
330
1A0
100
AcDbEntity
  8
Sichtbar MD
100
AcDbVertex
100
AcDb2dVertex
 10
261.1144304344986
 20
123.5080010098784
 30
0.0
  0
VERTEX
  5
1AB
330
1A0
100
AcDbEntity
  8
Sichtbar MD
100
AcDbVertex
100
AcDb2dVertex
 10
261.1453104088639
 20
123.3164341177235
 30
0.0
  0
VERTEX
  5
1AC
330
1A0
100
AcDbEntity
  8
Sichtbar MD
100
AcDbVertex
100
AcDb2dVertex
 10
261.1741614411209
 20
123.125823230001
 30
0.0
  0
VERTEX
  5
1AD
330
1A0
100
AcDbEntity
  8
Sichtbar MD
100
AcDbVertex
100
AcDb2dVertex
 10
261.2009966442917
 20
122.9360724562298
 30
0.0
  0
VERTEX
  5
1AE
330
1A0
100
AcDbEntity
  8
Sichtbar MD
100
AcDbVertex
100
AcDb2dVertex
 10
261.2258279393051
 20
122.7470854695928
 30
0.0
  0
VERTEX
  5
1AF
330
1A0
100
AcDbEntity
  8
Sichtbar MD
100
AcDbVertex
100
AcDb2dVertex
 10
261.2486660549973
 20
122.5587671139686
 30
0.0
  0
VERTEX
  5
1B0
330
1A0
100
AcDbEntity
  8
Sichtbar MD
100
AcDbVertex
100
AcDb2dVertex
 10
261.2695193360184
 20
122.3710229091371
 30
0.0
  0
VERTEX
  5
1B1
330
1A0
100
AcDbEntity
  8
Sichtbar MD
100
AcDbVertex
100
AcDb2dVertex
 10
261.2883925507401
 20
122.1837588112149
 30
0.0
  0
VERTEX
  5
1B2
330
1A0
100
AcDbEntity
  8
Sichtbar MD
100
AcDbVertex
100
AcDb2dVertex
 10
261.3052928517197
 20
121.9968803399819
 30
0.0
  0
VERTEX
  5
1B3
330
1A0
100
AcDbEntity
  8
Sichtbar MD
100
AcDbVertex
100
AcDb2dVertex
 10
261.3202190468643
 20
121.8102937495778
 30
0.0
  0
VERTEX
  5
1B4
330
1A0
100
AcDbEntity
  8
Sichtbar MD
100
AcDbVertex
100
AcDb2dVertex
 10
261.3331747124527
 20
121.6239039637361
 30
0.0
  0
VERTEX
  5
1B5
330
1A0
100
AcDbEntity
  8
Sichtbar MD
100
AcDbVertex
100
AcDb2dVertex
 10
261.3441550801133
 20
121.4376172365966
 30
0.0
  0
VERTEX
  5
1B6
330
1A0
100
AcDbEntity
  8
Sichtbar MD
100
AcDbVertex
100
AcDb2dVertex
 10
261.3531577656601
 20
121.2513390879392
 30
0.0
  0
VERTEX
  5
1B7
330
1A0
100
AcDbEntity
  8
Sichtbar MD
100
AcDbVertex
100
AcDb2dVertex
 10
261.3601780007217
 20
121.0649725150453
 30
0.0
  0
VERTEX
  5
1B8
330
1A0
100
AcDbEntity
  8
Sichtbar MD
100
AcDbVertex
100
AcDb2dVertex
 10
261.3652050564621
 20
120.8784225215035
 30
0.0
  0
VERTEX
  5
1B9
330
1A0
100
AcDbEntity
  8
Sichtbar MD
100
AcDbVertex
100
AcDb2dVertex
 10
261.3682305882309
 20
120.691590774189
 30
0.0
  0
VERTEX
  5
1BA
330
1A0
100
AcDbEntity
  8
Sichtbar MD
100
AcDbVertex
100
AcDb2dVertex
 10
261.3692426750992
 20
120.5043785036411
 30
0.0
  0
SEQEND
  5
1A3
330
1A0
100
AcDbEntity
  8
Sichtbar MD
  0
LINE
  5
1BB
330
75
100
AcDbEntity
  8
Sichtbar MD
100
AcDbLine
 10
261.3692423889969
 20
129.1646324637673
 30
0.0
 11
261.3692423889969
 21
120.5043784259229
 31
0.0
  0
POLYLINE
  5
1BC
330
75
100
AcDbEntity
  8
Sichtbar MD
100
AcDb2dPolyline
 66
     1
 10
0.0
 20
0.0
 30
0.0
 70
   128
  0
VERTEX
  5
1BD
330
1BC
100
AcDbEntity
  8
Sichtbar MD
100
AcDbVertex
100
AcDb2dVertex
 10
261.3692426750992
 20
129.1646324637673
 30
0.0
  0
VERTEX
  5
1BE
330
1BC
100
AcDbEntity
  8
Sichtbar MD
100
AcDbVertex
100
AcDb2dVertex
 10
261.3682305882309
 20
129.0710264331988
 30
0.0
  0
VERTEX
  5
1C0
330
1BC
100
AcDbEntity
  8
Sichtbar MD
100
AcDbVertex
100
AcDb2dVertex
 10
261.3652050564621
 20
128.9776104669414
 30
0.0
  0
VERTEX
  5
1C1
330
1BC
100
AcDbEntity
  8
Sichtbar MD
100
AcDbVertex
100
AcDb2dVertex
 10
261.3601780007217
 20
128.8843352700911
 30
0.0
  0
VERTEX
  5
1C2
330
1BC
100
AcDbEntity
  8
Sichtbar MD
100
AcDbVertex
100
AcDb2dVertex
 10
261.3531577656601
 20
128.7911521437905
 30
0.0
  0
VERTEX
  5
1C3
330
1BC
100
AcDbEntity
  8
Sichtbar MD
100
AcDbVertex
100
AcDb2dVertex
 10
261.3441550801133
 20
128.6980128827832
 30
0.0
  0
VERTEX
  5
1C4
330
1BC
100
AcDbEntity
  8
Sichtbar MD
100
AcDbVertex
100
AcDb2dVertex
 10
261.3331747124527
 20
128.6048696729682
 30
0.0
  0
VERTEX
  5
1C5
330
1BC
100
AcDbEntity
  8
Sichtbar MD
100
AcDbVertex
100
AcDb2dVertex
 10
261.3202190468643
 20
128.5116749796412
 30
0.0
  0
VERTEX
  5
1C6
330
1BC
100
AcDbEntity
  8
Sichtbar MD
100
AcDbVertex
100
AcDb2dVertex
 10
261.3052928517197
 20
128.4183815661214
 30
0.0
  0
VERTEX
  5
1C7
330
1BC
100
AcDbEntity
  8
Sichtbar MD
100
AcDbVertex
100
AcDb2dVertex
 10
261.2883925507401
 20
128.3249423447393
 30
0.0
  0
VERTEX
  5
1C8
330
1BC
100
AcDbEntity
  8
Sichtbar MD
100
AcDbVertex
100
AcDb2dVertex
 10
261.2695193360184
 20
128.2313102278255
 30
0.0
  0
VERTEX
  5
1C9
330
1BC
100
AcDbEntity
  8
Sichtbar MD
100
AcDbVertex
100
AcDb2dVertex
 10
261.2486660549973
 20
128.1374381277106
 30
0.0
  0
VERTEX
  5
1CA
330
1BC
100
AcDbEntity
  8
Sichtbar MD
100
AcDbVertex
100
AcDb2dVertex
 10
261.2258279393051
 20
128.0432790312312
 30
0.0
  0
VERTEX
  5
1CB
330
1BC
100
AcDbEntity
  8
Sichtbar MD
100
AcDbVertex
100
AcDb2dVertex
 10
261.2009966442917
 20
127.9487854781888
 30
0.0
  0
VERTEX
  5
1CC
330
1BC
100
AcDbEntity
  8
Sichtbar MD
100
AcDbVertex
100
AcDb2dVertex
 10
261.1741614411209
 20
127.8539099338792
 30
0.0
  0
VERTEX
  5
1CD
330
1BC
100
AcDbEntity
  8
Sichtbar MD
100
AcDbVertex
100
AcDb2dVertex
 10
261.1453104088639
 20
127.7586046400807
 30
0.0
  0
VERTEX
  5
1CE
330
1BC
100
AcDbEntity
  8
Sichtbar MD
100
AcDbVertex
100
AcDb2dVertex
 10
261.1144304344986
 20
127.6628213170312
 30
0.0
  0
VERTEX
  5
1CF
330
1BC
100
AcDbEntity
  8
Sichtbar MD
100
AcDbVertex
100
AcDb2dVertex
 10
261.0815024445389
 20
127.5665109399102
 30
0.0
  0
VERTEX
  5
1D0
330
1BC
100
AcDbEntity
  8
Sichtbar MD
100
AcDbVertex
100
AcDb2dVertex
 10
261.046510941777
 20
127.4696241858743
 30
0.0
  0
VERTEX
  5
1D1
330
1BC
100
AcDbEntity
  8
Sichtbar MD
100
AcDbVertex
100
AcDb2dVertex
 10
261.0094332764481
 20
127.3721112850449
 30
0.0
  0
VERTEX
  5
1D2
330
1BC
100
AcDbEntity
  8
Sichtbar MD
100
AcDbVertex
100
AcDb2dVertex
 10
260.9702479908798
 20
127.273921275451
 30
0.0
  0
VERTEX
  5
1D3
330
1BC
100
AcDbEntity
  8
Sichtbar MD
100
AcDbVertex
100
AcDb2dVertex
 10
260.9289300511215
 20
127.1750027480863
 30
0.0
  0
VERTEX
  5
1D4
330
1BC
100
AcDbEntity
  8
Sichtbar MD
100
AcDbVertex
100
AcDb2dVertex
 10
260.8854508469437
 20
127.0753029528401
 30
0.0
  0
VERTEX
  5
1D5
330
1BC
100
AcDbEntity
  8
Sichtbar MD
100
AcDbVertex
100
AcDb2dVertex
 10
260.8397817681168
 20
126.9747683945439
 30
0.0
  0
VERTEX
  5
1D6
330
1BC
100
AcDbEntity
  8
Sichtbar MD
100
AcDbVertex
100
AcDb2dVertex
 10
260.7918918202255
 20
126.8733446839593
 30
0.0
  0
SEQEND
  5
1BF
330
1BC
100
AcDbEntity
  8
Sichtbar MD
  0
LINE
  5
1D7
330
75
100
AcDbEntity
  8
Sichtbar MD
100
AcDbLine
 10
260.7918921198073
 20
125.0869541208788
 30
0.0
 11
260.7918921198073
 21
126.8733446162894
 31
0.0
  0
POLYLINE
  5
1D8
330
75
100
AcDbEntity
  8
Sichtbar MD
100
AcDb2dPolyline
 66
     1
 10
0.0
 20
0.0
 30
0.0
 70
   128
  0
VERTEX
  5
1D9
330
1D8
100
AcDbEntity
  8
Sichtbar MD
100
AcDbVertex
100
AcDb2dVertex
 10
261.3692426750992
 20
120.5043785036411
 30
0.0
  0
VERTEX
  5
1DA
330
1D8
100
AcDbEntity
  8
Sichtbar MD
100
AcDbVertex
100
AcDb2dVertex
 10
261.3682305882309
 20
120.3171664911888
 30
0.0
  0
VERTEX
  5
1DC
330
1D8
100
AcDbEntity
  8
Sichtbar MD
100
AcDbVertex
100
AcDb2dVertex
 10
261.3652050564621
 20
120.1303344857787
 30
0.0
  0
VERTEX
  5
1DD
330
1D8
100
AcDbEntity
  8
Sichtbar MD
100
AcDbVertex
100
AcDb2dVertex
 10
261.3601780007217
 20
119.9437839361179
 30
0.0
  0
VERTEX
  5
1DE
330
1D8
100
AcDbEntity
  8
Sichtbar MD
100
AcDbVertex
100
AcDb2dVertex
 10
261.3531577656601
 20
119.7574179193429
 30
0.0
  0
VERTEX
  5
1DF
330
1D8
100
AcDbEntity
  8
Sichtbar MD
100
AcDbVertex
100
AcDb2dVertex
 10
261.3441550801133
 20
119.5711392145667
 30
0.0
  0
VERTEX
  5
1E0
330
1D8
100
AcDbEntity
  8
Sichtbar MD
100
AcDbVertex
100
AcDb2dVertex
 10
261.3331747124527
 20
119.384853043546
 30
0.0
  0
VERTEX
  5
1E1
330
1D8
100
AcDbEntity
  8
Sichtbar MD
100
AcDbVertex
100
AcDb2dVertex
 10
261.3202190468643
 20
119.1984635158001
 30
0.0
  0
VERTEX
  5
1E2
330
1D8
100
AcDbEntity
  8
Sichtbar MD
100
AcDbVertex
100
AcDb2dVertex
 10
261.3052928517197
 20
119.0118769253959
 30
0.0
  0
VERTEX
  5
1E3
330
1D8
100
AcDbEntity
  8
Sichtbar MD
100
AcDbVertex
100
AcDb2dVertex
 10
261.2883925507401
 20
118.8249981561397
 30
0.0
  0
VERTEX
  5
1E4
330
1D8
100
AcDbEntity
  8
Sichtbar MD
100
AcDbVertex
100
AcDb2dVertex
 10
261.2695193360184
 20
118.6377338400493
 30
0.0
  0
VERTEX
  5
1E5
330
1D8
100
AcDbEntity
  8
Sichtbar MD
100
AcDbVertex
100
AcDb2dVertex
 10
261.2486660549973
 20
118.4499898933135
 30
0.0
  0
VERTEX
  5
1E6
330
1D8
100
AcDbEntity
  8
Sichtbar MD
100
AcDbVertex
100
AcDb2dVertex
 10
261.2258279393051
 20
118.2616715376893
 30
0.0
  0
VERTEX
  5
1E7
330
1D8
100
AcDbEntity
  8
Sichtbar MD
100
AcDbVertex
100
AcDb2dVertex
 10
261.2009966442917
 20
118.0726845111248
 30
0.0
  0
VERTEX
  5
1E8
330
1D8
100
AcDbEntity
  8
Sichtbar MD
100
AcDbVertex
100
AcDb2dVertex
 10
261.1741614411209
 20
117.882933479258
 30
0.0
  0
VERTEX
  5
1E9
330
1D8
100
AcDbEntity
  8
Sichtbar MD
100
AcDbVertex
100
AcDb2dVertex
 10
261.1453104088639
 20
117.6923228895586
 30
0.0
  0
VERTEX
  5
1EA
330
1D8
100
AcDbEntity
  8
Sichtbar MD
100
AcDbVertex
100
AcDb2dVertex
 10
261.1144304344986
 20
117.5007561264516
 30
0.0
  0
VERTEX
  5
1EB
330
1D8
100
AcDbEntity
  8
Sichtbar MD
100
AcDbVertex
100
AcDb2dVertex
 10
261.0815024445389
 20
117.3081353637382
 30
0.0
  0
VERTEX
  5
1EC
330
1D8
100
AcDbEntity
  8
Sichtbar MD
100
AcDbVertex
100
AcDb2dVertex
 10
261.046510941777
 20
117.1143617521025
 30
0.0
  0
VERTEX
  5
1ED
330
1D8
100
AcDbEntity
  8
Sichtbar MD
100
AcDbVertex
100
AcDb2dVertex
 10
261.0094332764481
 20
116.9193363438427
 30
0.0
  0
VERTEX
  5
1EE
330
1D8
100
AcDbEntity
  8
Sichtbar MD
100
AcDbVertex
100
AcDb2dVertex
 10
260.9702479908798
 20
116.7229561786423
 30
0.0
  0
VERTEX
  5
1EF
330
1D8
100
AcDbEntity
  8
Sichtbar MD
100
AcDbVertex
100
AcDb2dVertex
 10
260.9289300511215
 20
116.5251189228937
 30
0.0
  0
VERTEX
  5
1F0
330
1D8
100
AcDbEntity
  8
Sichtbar MD
100
AcDbVertex
100
AcDb2dVertex
 10
260.8854508469437
 20
116.3257195023218
 30
0.0
  0
VERTEX
  5
1F1
330
1D8
100
AcDbEntity
  8
Sichtbar MD
100
AcDbVertex
100
AcDb2dVertex
 10
260.8397817681168
 20
116.1246502310328
 30
0.0
  0
VERTEX
  5
1F2
330
1D8
100
AcDbEntity
  8
Sichtbar MD
100
AcDbVertex
100
AcDb2dVertex
 10
260.7918918202255
 20
115.9218028730798
 30
0.0
  0
SEQEND
  5
1DB
330
1D8
100
AcDbEntity
  8
Sichtbar MD
  0
LINE
  5
1F3
330
75
100
AcDbEntity
  8
Sichtbar MD
100
AcDbLine
 10
260.7918921198073
 20
114.1354122355565
 30
0.0
 11
260.7918921198073
 21
115.9218027309671
 31
0.0
  0
POLYLINE
  5
1F4
330
75
100
AcDbEntity
  8
Sichtbar MD
100
AcDb2dPolyline
 66
     1
 10
0.0
 20
0.0
 30
0.0
 70
   128
  0
VERTEX
  5
1F5
330
1F4
100
AcDbEntity
  8
Sichtbar MD
100
AcDbVertex
100
AcDb2dVertex
 10
260.7918918202255
 20
114.1354123165499
 30
0.0
  0
VERTEX
  5
1F6
330
1F4
100
AcDbEntity
  8
Sichtbar MD
100
AcDbVertex
100
AcDb2dVertex
 10
260.8397817681168
 20
114.0339882221467
 30
0.0
  0
VERTEX
  5
1F8
330
1F4
100
AcDbEntity
  8
Sichtbar MD
100
AcDbVertex
100
AcDb2dVertex
 10
260.8854508469437
 20
113.9334541052004
 30
0.0
  0
VERTEX
  5
1F9
330
1F4
100
AcDbEntity
  8
Sichtbar MD
100
AcDbVertex
100
AcDb2dVertex
 10
260.9289300511215
 20
113.8337541818514
 30
0.0
  0
VERTEX
  5
1FA
330
1F4
100
AcDbEntity
  8
Sichtbar MD
100
AcDbVertex
100
AcDb2dVertex
 10
260.9702479908798
 20
113.7348356024791
 30
0.0
  0
VERTEX
  5
1FB
330
1F4
100
AcDbEntity
  8
Sichtbar MD
100
AcDbVertex
100
AcDb2dVertex
 10
261.0094332764481
 20
113.6366457448959
 30
0.0
  0
VERTEX
  5
1FC
330
1F4
100
AcDbEntity
  8
Sichtbar MD
100
AcDbVertex
100
AcDb2dVertex
 10
261.046510941777
 20
113.5391323433958
 30
0.0
  0
VERTEX
  5
1FD
330
1F4
100
AcDbEntity
  8
Sichtbar MD
100
AcDbVertex
100
AcDb2dVertex
 10
261.0815024445389
 20
113.4422460818424
 30
0.0
  0
VERTEX
  5
1FE
330
1F4
100
AcDbEntity
  8
Sichtbar MD
100
AcDbVertex
100
AcDb2dVertex
 10
261.1144304344986
 20
113.34593569625
 30
0.0
  0
VERTEX
  5
1FF
330
1F4
100
AcDbEntity
  8
Sichtbar MD
100
AcDbVertex
100
AcDb2dVertex
 10
261.1453104088639
 20
113.2501524052041
 30
0.0
  0
VERTEX
  5
200
330
1F4
100
AcDbEntity
  8
Sichtbar MD
100
AcDbVertex
100
AcDb2dVertex
 10
261.1741614411209
 20
113.1548466622684
 30
0.0
  0
VERTEX
  5
201
330
1F4
100
AcDbEntity
  8
Sichtbar MD
100
AcDbVertex
100
AcDb2dVertex
 10
261.2009966442917
 20
113.0599713237228
 30
0.0
  0
VERTEX
  5
202
330
1F4
100
AcDbEntity
  8
Sichtbar MD
100
AcDbVertex
100
AcDb2dVertex
 10
261.2258279393051
 20
112.9654779247065
 30
0.0
  0
VERTEX
  5
203
330
1F4
100
AcDbEntity
  8
Sichtbar MD
100
AcDbVertex
100
AcDb2dVertex
 10
261.2486660549973
 20
112.8713188145733
 30
0.0
  0
VERTEX
  5
204
330
1F4
100
AcDbEntity
  8
Sichtbar MD
100
AcDbVertex
100
AcDb2dVertex
 10
261.2695193360184
 20
112.7774468189407
 30
0.0
  0
VERTEX
  5
205
330
1F4
100
AcDbEntity
  8
Sichtbar MD
100
AcDbVertex
100
AcDb2dVertex
 10
261.2883925507401
 20
112.6838142472351
 30
0.0
  0
VERTEX
  5
206
330
1F4
100
AcDbEntity
  8
Sichtbar MD
100
AcDbVertex
100
AcDb2dVertex
 10
261.3052928517197
 20
112.5903752954075
 30
0.0
  0
VERTEX
  5
207
330
1F4
100
AcDbEntity
  8
Sichtbar MD
100
AcDbVertex
100
AcDb2dVertex
 10
261.3202190468643
 20
112.4970818950058
 30
0.0
  0
VERTEX
  5
208
330
1F4
100
AcDbEntity
  8
Sichtbar MD
100
AcDbVertex
100
AcDb2dVertex
 10
261.3331747124527
 20
112.4038872095984
 30
0.0
  0
VERTEX
  5
209
330
1F4
100
AcDbEntity
  8
Sichtbar MD
100
AcDbVertex
100
AcDb2dVertex
 10
261.3441550801133
 20
112.3107440248754
 30
0.0
  0
VERTEX
  5
20A
330
1F4
100
AcDbEntity
  8
Sichtbar MD
100
AcDbVertex
100
AcDb2dVertex
 10
261.3531577656601
 20
112.217604730118
 30
0.0
  0
VERTEX
  5
20B
330
1F4
100
AcDbEntity
  8
Sichtbar MD
100
AcDbVertex
100
AcDb2dVertex
 10
261.3601780007217
 20
112.1244216347526
 30
0.0
  0
VERTEX
  5
20C
330
1F4
100
AcDbEntity
  8
Sichtbar MD
100
AcDbVertex
100
AcDb2dVertex
 10
261.3652050564621
 20
112.0311463937009
 30
0.0
  0
VERTEX
  5
20D
330
1F4
100
AcDbEntity
  8
Sichtbar MD
100
AcDbVertex
100
AcDb2dVertex
 10
261.3682305882309
 20
111.9377303638615
 30
0.0
  0
VERTEX
  5
20E
330
1F4
100
AcDbEntity
  8
Sichtbar MD
100
AcDbVertex
100
AcDb2dVertex
 10
261.3692426750992
 20
111.8441244657967
 30
0.0
  0
SEQEND
  5
1F7
330
1F4
100
AcDbEntity
  8
Sichtbar MD
  0
LINE
  5
20F
330
75
100
AcDbEntity
  8
Sichtbar MD
100
AcDbLine
 10
261.3692423889969
 20
120.5043784259229
 30
0.0
 11
261.3692423889969
 21
111.8441243880786
 31
0.0
  0
POLYLINE
  5
210
330
75
100
AcDbEntity
  8
Sichtbar MD
100
AcDb2dPolyline
 66
     1
 10
0.0
 20
0.0
 30
0.0
 70
   128
  0
VERTEX
  5
211
330
210
100
AcDbEntity
  8
Sichtbar MD
100
AcDbVertex
100
AcDb2dVertex
 10
261.3692426750992
 20
111.8441244657967
 30
0.0
  0
VERTEX
  5
212
330
210
100
AcDbEntity
  8
Sichtbar MD
100
AcDbVertex
100
AcDb2dVertex
 10
261.3682305882309
 20
111.7505183096362
 30
0.0
  0
VERTEX
  5
214
330
210
100
AcDbEntity
  8
Sichtbar MD
100
AcDbVertex
100
AcDb2dVertex
 10
261.3652050564621
 20
111.6571025378925
 30
0.0
  0
VERTEX
  5
215
330
210
100
AcDbEntity
  8
Sichtbar MD
100
AcDbVertex
100
AcDb2dVertex
 10
261.3601780007217
 20
111.5638272569132
 30
0.0
  0
VERTEX
  5
216
330
210
100
AcDbEntity
  8
Sichtbar MD
100
AcDbVertex
100
AcDb2dVertex
 10
261.3531577656601
 20
111.4706442014753
 30
0.0
  0
VERTEX
  5
217
330
210
100
AcDbEntity
  8
Sichtbar MD
100
AcDbVertex
100
AcDb2dVertex
 10
261.3441550801133
 20
111.3775048667904
 30
0.0
  0
VERTEX
  5
218
330
210
100
AcDbEntity
  8
Sichtbar MD
100
AcDbVertex
100
AcDb2dVertex
 10
261.3331747124527
 20
111.2843617219949
 30
0.0
  0
VERTEX
  5
219
330
210
100
AcDbEntity
  8
Sichtbar MD
100
AcDbVertex
100
AcDb2dVertex
 10
261.3202190468643
 20
111.1911667784919
 30
0.0
  0
VERTEX
  5
21A
330
210
100
AcDbEntity
  8
Sichtbar MD
100
AcDbVertex
100
AcDb2dVertex
 10
261.3052928517197
 20
111.0978733780902
 30
0.0
  0
VERTEX
  5
21B
330
210
100
AcDbEntity
  8
Sichtbar MD
100
AcDbVertex
100
AcDb2dVertex
 10
261.2883925507401
 20
111.0044341282393
 30
0.0
  0
VERTEX
  5
21C
330
210
100
AcDbEntity
  8
Sichtbar MD
100
AcDbVertex
100
AcDb2dVertex
 10
261.2695193360184
 20
110.9108023707483
 30
0.0
  0
VERTEX
  5
21D
330
210
100
AcDbEntity
  8
Sichtbar MD
100
AcDbVertex
100
AcDb2dVertex
 10
261.2486660549973
 20
110.81693011702
 30
0.0
  0
VERTEX
  5
21E
330
210
100
AcDbEntity
  8
Sichtbar MD
100
AcDbVertex
100
AcDb2dVertex
 10
261.2258279393051
 20
110.7227710068868
 30
0.0
  0
VERTEX
  5
21F
330
210
100
AcDbEntity
  8
Sichtbar MD
100
AcDbVertex
100
AcDb2dVertex
 10
261.2009966442917
 20
110.6282770517516
 30
0.0
  0
VERTEX
  5
220
330
210
100
AcDbEntity
  8
Sichtbar MD
100
AcDbVertex
100
AcDb2dVertex
 10
261.1741614411209
 20
110.5334019713017
 30
0.0
  0
VERTEX
  5
221
330
210
100
AcDbEntity
  8
Sichtbar MD
100
AcDbVertex
100
AcDb2dVertex
 10
261.1453104088639
 20
110.4380965263892
 30
0.0
  0
VERTEX
  5
222
330
210
100
AcDbEntity
  8
Sichtbar MD
100
AcDbVertex
100
AcDb2dVertex
 10
261.1144304344986
 20
110.3423131062955
 30
0.0
  0
VERTEX
  5
223
330
210
100
AcDbEntity
  8
Sichtbar MD
100
AcDbVertex
100
AcDb2dVertex
 10
261.0815024445389
 20
110.2460028497509
 30
0.0
  0
VERTEX
  5
224
330
210
100
AcDbEntity
  8
Sichtbar MD
100
AcDbVertex
100
AcDb2dVertex
 10
261.046510941777
 20
110.1491161611265
 30
0.0
  0
VERTEX
  5
225
330
210
100
AcDbEntity
  8
Sichtbar MD
100
AcDbVertex
100
AcDb2dVertex
 10
261.0094332764481
 20
110.0516034447931
 30
0.0
  0
VERTEX
  5
226
330
210
100
AcDbEntity
  8
Sichtbar MD
100
AcDbVertex
100
AcDb2dVertex
 10
260.9702479908798
 20
109.9534132000665
 30
0.0
  0
VERTEX
  5
227
330
210
100
AcDbEntity
  8
Sichtbar MD
100
AcDbVertex
100
AcDb2dVertex
 10
260.9289300511215
 20
109.8544948787898
 30
0.0
  0
VERTEX
  5
228
330
210
100
AcDbEntity
  8
Sichtbar MD
100
AcDbVertex
100
AcDb2dVertex
 10
260.8854508469437
 20
109.7547946973451
 30
0.0
  0
VERTEX
  5
229
330
210
100
AcDbEntity
  8
Sichtbar MD
100
AcDbVertex
100
AcDb2dVertex
 10
260.8397817681168
 20
109.6542602823756
 30
0.0
  0
VERTEX
  5
22A
330
210
100
AcDbEntity
  8
Sichtbar MD
100
AcDbVertex
100
AcDb2dVertex
 10
260.7918918202255
 20
109.5528366795673
 30
0.0
  0
SEQEND
  5
213
330
210
100
AcDbEntity
  8
Sichtbar MD
  0
LINE
  5
22B
330
75
100
AcDbEntity
  8
Sichtbar MD
100
AcDbLine
 10
260.7918921198073
 20
109.5043784259229
 30
0.0
 11
260.7918921198073
 21
109.5528365406006
 31
0.0
  0
LINE
  5
22C
330
75
100
AcDbEntity
  8
Sichtbar MD
100
AcDbLine
 10
261.3692423889969
 20
111.8441243880786
 30
0.0
 11
261.3692423889969
 21
110.5043784259229
 31
0.0
  0
LINE
  5
22D
330
75
100
AcDbEntity
  8
Sichtbar MD
100
AcDbLine
 10
260.7918921198073
 20
109.5528365406006
 30
0.0
 11
256.4465926581866
 21
109.5528365406006
 31
0.0
  0
LINE
  5
22E
330
75
100
AcDbEntity
  8
Sichtbar MD
100
AcDbLine
 10
256.4465926581866
 20
114.1354122355565
 30
0.0
 11
260.7918921198073
 21
114.1354122355565
 31
0.0
  0
LINE
  5
22F
330
75
100
AcDbEntity
  8
Sichtbar MD
100
AcDbLine
 10
260.7918921198073
 20
115.9218027309671
 30
0.0
 11
256.4465926581866
 21
115.9218027309671
 31
0.0
  0
LINE
  5
230
330
75
100
AcDbEntity
  8
Sichtbar MD
100
AcDbLine
 10
256.4465926581866
 20
125.0869541208788
 30
0.0
 11
260.7918921198073
 21
125.0869541208788
 31
0.0
  0
LINE
  5
231
330
75
100
AcDbEntity
  8
Sichtbar MD
100
AcDbLine
 10
260.7918921198073
 20
126.8733446162894
 30
0.0
 11
256.4465926581866
 21
126.8733446162894
 31
0.0
  0
LINE
  5
232
330
75
100
AcDbEntity
  8
Sichtbar MD
100
AcDbLine
 10
256.4465926581866
 20
131.4559203112453
 30
0.0
 11
260.7918921198073
 21
131.4559203112453
 31
0.0
  0
LINE
  5
233
330
75
100
AcDbEntity
  8
Sichtbar MD
100
AcDbLine
 10
280.969242388997
 20
111.7168784259229
 30
0.0
 11
280.969242388997
 21
129.2918784259229
 31
0.0
  0
LINE
  5
234
330
75
100
AcDbEntity
  8
Sichtbar MD
100
AcDbLine
 10
281.431742388997
 20
111.2543784259229
 30
0.0
 11
281.431742388997
 21
129.7543784259229
 31
0.0
  0
LINE
  5
235
330
75
100
AcDbEntity
  8
Sichtbar MD
100
AcDbLine
 10
282.769242388997
 20
111.7168784259229
 30
0.0
 11
282.769242388997
 21
129.2918784259229
 31
0.0
  0
LINE
  5
236
330
75
100
AcDbEntity
  8
Sichtbar MD
100
AcDbLine
 10
279.4992423889969
 20
111.2543784259229
 30
0.0
 11
279.4992423889969
 21
129.7543784259229
 31
0.0
  0
LINE
  5
237
330
75
100
AcDbEntity
  8
Sichtbar MD
100
AcDbLine
 10
255.8692423889969
 20
110.5043784259229
 30
0.0
 11
256.4465926581866
 21
109.5043784259229
 31
0.0
  0
LINE
  5
238
330
75
100
AcDbEntity
  8
Sichtbar MD
100
AcDbLine
 10
255.8692423889969
 20
130.504378425923
 30
0.0
 11
256.4465926581866
 21
131.504378425923
 31
0.0
  0
LINE
  5
239
330
75
100
AcDbEntity
  8
Sichtbar MD
100
AcDbLine
 10
261.3692423889969
 20
130.5043784259229
 30
0.0
 11
260.7918921198073
 21
131.504378425923
 31
0.0
  0
LINE
  5
23A
330
75
100
AcDbEntity
  8
Sichtbar MD
100
AcDbLine
 10
261.3692423889969
 20
110.5043784259229
 30
0.0
 11
260.7918921198073
 21
109.5043784259229
 31
0.0
  0
LINE
  5
23B
330
75
100
AcDbEntity
  8
Sichtbar MD
100
AcDbLine
 10
256.4465926581866
 20
109.5043784259229
 30
0.0
 11
260.7918921198073
 21
109.5043784259229
 31
0.0
  0
LINE
  5
23C
330
75
100
AcDbEntity
  8
Sichtbar MD
100
AcDbLine
 10
256.4465926581866
 20
131.504378425923
 30
0.0
 11
260.7918921198073
 21
131.504378425923
 31
0.0
  0
LINE
  5
23D
330
75
100
AcDbEntity
  8
Sichtbar MD
100
AcDbLine
 10
279.499242388997
 20
127.1043784259229
 30
0.0
 11
280.969242388997
 21
127.1043784259229
 31
0.0
  0
LINE
  5
23E
330
75
100
AcDbEntity
  8
Sichtbar MD
100
AcDbLine
 10
279.499242388997
 20
113.9043784259229
 30
0.0
 11
280.969242388997
 21
113.9043784259229
 31
0.0
  0
LINE
  5
23F
330
75
100
AcDbEntity
  8
Sichtbar MD
100
AcDbLine
 10
280.969242388997
 20
129.2918784259229
 30
0.0
 11
281.431742388997
 21
129.7543784259229
 31
0.0
  0
LINE
  5
240
330
75
100
AcDbEntity
  8
Sichtbar MD
100
AcDbLine
 10
280.969242388997
 20
111.7168784259229
 30
0.0
 11
281.431742388997
 21
111.2543784259229
 31
0.0
  0
LINE
  5
241
330
75
100
AcDbEntity
  8
Sichtbar MD
100
AcDbLine
 10
281.431742388997
 20
129.7543784259229
 30
0.0
 11
282.306742388997
 21
129.7543784259229
 31
0.0
  0
LINE
  5
242
330
75
100
AcDbEntity
  8
Sichtbar MD
100
AcDbLine
 10
281.431742388997
 20
111.2543784259229
 30
0.0
 11
282.306742388997
 21
111.2543784259229
 31
0.0
  0
ARC
  5
243
330
75
100
AcDbEntity
  8
Sichtbar MD
100
AcDbCircle
 10
282.306742388997
 20
111.7168784259229
 30
0.0
 40
0.4625000000000007
100
AcDbArc
 50
270.0
 51
0.0
  0
ARC
  5
244
330
75
100
AcDbEntity
  8
Sichtbar MD
100
AcDbCircle
 10
282.306742388997
 20
129.2918784259229
 30
0.0
 40
0.4625000000000007
100
AcDbArc
 50
0.0
 51
90.0
  0
LINE
  5
245
330
75
100
AcDbEntity
  8
Sichtbar MD
100
AcDbLine
 10
261.3692423889969
 20
129.7543784259229
 30
0.0
 11
279.4992423889969
 21
129.7543784259229
 31
0.0
  0
LINE
  5
246
330
75
100
AcDbEntity
  8
Sichtbar MD
100
AcDbLine
 10
261.3692423889969
 20
111.2543784259229
 30
0.0
 11
279.4992423889969
 21
111.2543784259229
 31
0.0
  0
LINE
  5
247
330
75
100
AcDbEntity
  8
Sichtbar MD
100
AcDbLine
 10
65.86924238899692
 20
97.50437842592292
 30
0.0
 11
65.86924238899692
 21
143.5043784259229
 31
0.0
  0
LINE
  5
248
330
75
100
AcDbEntity
  8
Sichtbar MD
100
AcDbLine
 10
255.8692423889969
 20
97.50437842592303
 30
0.0
 11
255.8692423889969
 21
143.504378425923
 31
0.0
  0
LINE
  5
249
330
75
100
AcDbEntity
  8
Sichtbar MD
100
AcDbLine
 10
65.86924238899692
 20
143.5043784259229
 30
0.0
 11
255.8692423889969
 21
143.504378425923
 31
0.0
  0
LINE
  5
24A
330
75
100
AcDbEntity
  8
Sichtbar MD
100
AcDbLine
 10
65.8692423889969
 20
97.50437842592294
 30
0.0
 11
255.8692423889969
 21
97.50437842592303
 31
0.0
  0
LINE
  5
24B
330
75
100
AcDbEntity
  8
Sichtbar MD
100
AcDbLine
 10
4.711358556508283
 20
126.5043784259229
 30
0.0
 11
4.711358556508283
 21
125.7005308486296
 31
0.0
  0
POLYLINE
  5
24C
330
75
100
AcDbEntity
  8
Sichtbar MD
100
AcDb2dPolyline
 66
     1
 10
0.0
 20
0.0
 30
0.0
 70
   128
  0
VERTEX
  5
24D
330
24C
100
AcDbEntity
  8
Sichtbar MD
100
AcDbVertex
100
AcDb2dVertex
 10
5.247256951390961
 20
127.4325815318495
 30
0.0
  0
VERTEX
  5
24E
330
24C
100
AcDbEntity
  8
Sichtbar MD
100
AcDbVertex
100
AcDb2dVertex
 10
5.202041799186924
 20
127.3528752206236
 30
0.0
  0
VERTEX
  5
250
330
24C
100
AcDbEntity
  8
Sichtbar MD
100
AcDbVertex
100
AcDb2dVertex
 10
5.159065956234196
 20
127.2742805360227
 30
0.0
  0
VERTEX
  5
251
330
24C
100
AcDbEntity
  8
Sichtbar MD
100
AcDbVertex
100
AcDb2dVertex
 10
5.118277268468598
 20
127.1967253564268
 30
0.0
  0
VERTEX
  5
252
330
24C
100
AcDbEntity
  8
Sichtbar MD
100
AcDbVertex
100
AcDb2dVertex
 10
5.079627530633668
 20
127.1201429246336
 30
0.0
  0
VERTEX
  5
253
330
24C
100
AcDbEntity
  8
Sichtbar MD
100
AcDbVertex
100
AcDb2dVertex
 10
5.043072411774853
 20
127.0444658873945
 30
0.0
  0
VERTEX
  5
254
330
24C
100
AcDbEntity
  8
Sichtbar MD
100
AcDbVertex
100
AcDb2dVertex
 10
5.00857115721629
 20
126.9696304677397
 30
0.0
  0
VERTEX
  5
255
330
24C
100
AcDbEntity
  8
Sichtbar MD
100
AcDbVertex
100
AcDb2dVertex
 10
4.97608647680209
 20
126.8955734847456
 30
0.0
  0
VERTEX
  5
256
330
24C
100
AcDbEntity
  8
Sichtbar MD
100
AcDbVertex
100
AcDb2dVertex
 10
4.945584507643441
 20
126.822234737721
 30
0.0
  0
VERTEX
  5
257
330
24C
100
AcDbEntity
  8
Sichtbar MD
100
AcDbVertex
100
AcDb2dVertex
 10
4.917034609227637
 20
126.7495546220213
 30
0.0
  0
VERTEX
  5
258
330
24C
100
AcDbEntity
  8
Sichtbar MD
100
AcDbVertex
100
AcDb2dVertex
 10
4.890409326165179
 20
126.6774747250944
 30
0.0
  0
VERTEX
  5
259
330
24C
100
AcDbEntity
  8
Sichtbar MD
100
AcDbVertex
100
AcDb2dVertex
 10
4.865684267117837
 20
126.6059378264814
 30
0.0
  0
VERTEX
  5
25A
330
24C
100
AcDbEntity
  8
Sichtbar MD
100
AcDbVertex
100
AcDb2dVertex
 10
4.842838011666398
 20
126.5348884938627
 30
0.0
  0
VERTEX
  5
25B
330
24C
100
AcDbEntity
  8
Sichtbar MD
100
AcDbVertex
100
AcDb2dVertex
 10
4.821852110310654
 20
126.4642701028257
 30
0.0
  0
VERTEX
  5
25C
330
24C
100
AcDbEntity
  8
Sichtbar MD
100
AcDbVertex
100
AcDb2dVertex
 10
4.802710991337161
 20
126.3940296052366
 30
0.0
  0
VERTEX
  5
25D
330
24C
100
AcDbEntity
  8
Sichtbar MD
100
AcDbVertex
100
AcDb2dVertex
 10
4.78540193753616
 20
126.3241109727293
 30
0.0
  0
VERTEX
  5
25E
330
24C
100
AcDbEntity
  8
Sichtbar MD
100
AcDbVertex
100
AcDb2dVertex
 10
4.769915044292073
 20
126.2544623492628
 30
0.0
  0
VERTEX
  5
25F
330
24C
100
AcDbEntity
  8
Sichtbar MD
100
AcDbVertex
100
AcDb2dVertex
 10
4.756243219583492
 20
126.1850288985639
 30
0.0
  0
VERTEX
  5
260
330
24C
100
AcDbEntity
  8
Sichtbar MD
100
AcDbVertex
100
AcDb2dVertex
 10
4.744382176998268
 20
126.1157581685453
 30
0.0
  0
VERTEX
  5
261
330
24C
100
AcDbEntity
  8
Sichtbar MD
100
AcDbVertex
100
AcDb2dVertex
 10
4.734330431076894
 20
126.0465959189802
 30
0.0
  0
VERTEX
  5
262
330
24C
100
AcDbEntity
  8
Sichtbar MD
100
AcDbVertex
100
AcDb2dVertex
 10
4.72608931593896
 20
125.9774891017347
 30
0.0
  0
VERTEX
  5
263
330
24C
100
AcDbEntity
  8
Sichtbar MD
100
AcDbVertex
100
AcDb2dVertex
 10
4.719663020207743
 20
125.9083840726286
 30
0.0
  0
VERTEX
  5
264
330
24C
100
AcDbEntity
  8
Sichtbar MD
100
AcDbVertex
100
AcDb2dVertex
 10
4.715058617569237
 20
125.8392259953886
 30
0.0
  0
VERTEX
  5
265
330
24C
100
AcDbEntity
  8
Sichtbar MD
100
AcDbVertex
100
AcDb2dVertex
 10
4.712286124106693
 20
125.7699600337415
 30
0.0
  0
VERTEX
  5
266
330
24C
100
AcDbEntity
  8
Sichtbar MD
100
AcDbVertex
100
AcDb2dVertex
 10
4.711358556508283
 20
125.7005307553678
 30
0.0
  0
SEQEND
  5
24F
330
24C
100
AcDbEntity
  8
Sichtbar MD
  0
LINE
  5
267
330
75
100
AcDbEntity
  8
Sichtbar MD
100
AcDbLine
 10
4.711358556508289
 20
115.3082260032163
 30
0.0
 11
4.71135855650829
 21
114.5043784259229
 31
0.0
  0
LINE
  5
268
330
75
100
AcDbEntity
  8
Sichtbar MD
100
AcDbLine
 10
4.711358556508286
 20
120.0043784259229
 30
0.0
 11
4.71135855650829
 21
115.3082260032163
 31
0.0
  0
LINE
  5
269
330
75
100
AcDbEntity
  8
Sichtbar MD
100
AcDbLine
 10
4.711358556508283
 20
125.7005308486296
 30
0.0
 11
4.711358556508286
 21
121.0043784259229
 31
0.0
  0
POLYLINE
  5
26A
330
75
100
AcDbEntity
  8
Sichtbar MD
100
AcDb2dPolyline
 66
     1
 10
0.0
 20
0.0
 30
0.0
 70
   128
  0
VERTEX
  5
26B
330
26A
100
AcDbEntity
  8
Sichtbar MD
100
AcDbVertex
100
AcDb2dVertex
 10
4.71135855650829
 20
115.3082260964781
 30
0.0
  0
VERTEX
  5
26C
330
26A
100
AcDbEntity
  8
Sichtbar MD
100
AcDbVertex
100
AcDb2dVertex
 10
4.7122861241067
 20
115.2387968181043
 30
0.0
  0
VERTEX
  5
26E
330
26A
100
AcDbEntity
  8
Sichtbar MD
100
AcDbVertex
100
AcDb2dVertex
 10
4.715058617569244
 20
115.1695308564573
 30
0.0
  0
VERTEX
  5
26F
330
26A
100
AcDbEntity
  8
Sichtbar MD
100
AcDbVertex
100
AcDb2dVertex
 10
4.71966302020775
 20
115.1003727792173
 30
0.0
  0
VERTEX
  5
270
330
26A
100
AcDbEntity
  8
Sichtbar MD
100
AcDbVertex
100
AcDb2dVertex
 10
4.726089315938967
 20
115.0312677501112
 30
0.0
  0
VERTEX
  5
271
330
26A
100
AcDbEntity
  8
Sichtbar MD
100
AcDbVertex
100
AcDb2dVertex
 10
4.734330431076902
 20
114.9621609328657
 30
0.0
  0
VERTEX
  5
272
330
26A
100
AcDbEntity
  8
Sichtbar MD
100
AcDbVertex
100
AcDb2dVertex
 10
4.744382176998275
 20
114.8929986833006
 30
0.0
  0
VERTEX
  5
273
330
26A
100
AcDbEntity
  8
Sichtbar MD
100
AcDbVertex
100
AcDb2dVertex
 10
4.756243219583499
 20
114.8237279532819
 30
0.0
  0
VERTEX
  5
274
330
26A
100
AcDbEntity
  8
Sichtbar MD
100
AcDbVertex
100
AcDb2dVertex
 10
4.76991504429208
 20
114.7542945025831
 30
0.0
  0
VERTEX
  5
275
330
26A
100
AcDbEntity
  8
Sichtbar MD
100
AcDbVertex
100
AcDb2dVertex
 10
4.785401937536168
 20
114.6846458791166
 30
0.0
  0
VERTEX
  5
276
330
26A
100
AcDbEntity
  8
Sichtbar MD
100
AcDbVertex
100
AcDb2dVertex
 10
4.802710991337168
 20
114.6147272466093
 30
0.0
  0
VERTEX
  5
277
330
26A
100
AcDbEntity
  8
Sichtbar MD
100
AcDbVertex
100
AcDb2dVertex
 10
4.821852110310661
 20
114.5444867490202
 30
0.0
  0
VERTEX
  5
278
330
26A
100
AcDbEntity
  8
Sichtbar MD
100
AcDbVertex
100
AcDb2dVertex
 10
4.842838011666405
 20
114.4738683579832
 30
0.0
  0
VERTEX
  5
279
330
26A
100
AcDbEntity
  8
Sichtbar MD
100
AcDbVertex
100
AcDb2dVertex
 10
4.865684267117846
 20
114.4028190253645
 30
0.0
  0
VERTEX
  5
27A
330
26A
100
AcDbEntity
  8
Sichtbar MD
100
AcDbVertex
100
AcDb2dVertex
 10
4.890409326165188
 20
114.3312821267515
 30
0.0
  0
VERTEX
  5
27B
330
26A
100
AcDbEntity
  8
Sichtbar MD
100
AcDbVertex
100
AcDb2dVertex
 10
4.917034609227646
 20
114.2592022298246
 30
0.0
  0
VERTEX
  5
27C
330
26A
100
AcDbEntity
  8
Sichtbar MD
100
AcDbVertex
100
AcDb2dVertex
 10
4.94558450764345
 20
114.1865221141248
 30
0.0
  0
VERTEX
  5
27D
330
26A
100
AcDbEntity
  8
Sichtbar MD
100
AcDbVertex
100
AcDb2dVertex
 10
4.976086476802099
 20
114.1131833671003
 30
0.0
  0
VERTEX
  5
27E
330
26A
100
AcDbEntity
  8
Sichtbar MD
100
AcDbVertex
100
AcDb2dVertex
 10
5.008571157216299
 20
114.0391263841062
 30
0.0
  0
VERTEX
  5
27F
330
26A
100
AcDbEntity
  8
Sichtbar MD
100
AcDbVertex
100
AcDb2dVertex
 10
5.043072411774862
 20
113.9642909644514
 30
0.0
  0
VERTEX
  5
280
330
26A
100
AcDbEntity
  8
Sichtbar MD
100
AcDbVertex
100
AcDb2dVertex
 10
5.079627530633676
 20
113.8886139272123
 30
0.0
  0
VERTEX
  5
281
330
26A
100
AcDbEntity
  8
Sichtbar MD
100
AcDbVertex
100
AcDb2dVertex
 10
5.118277268468607
 20
113.8120314954191
 30
0.0
  0
VERTEX
  5
282
330
26A
100
AcDbEntity
  8
Sichtbar MD
100
AcDbVertex
100
AcDb2dVertex
 10
5.159065956234205
 20
113.7344763158232
 30
0.0
  0
VERTEX
  5
283
330
26A
100
AcDbEntity
  8
Sichtbar MD
100
AcDbVertex
100
AcDb2dVertex
 10
5.202041799186933
 20
113.6558816312223
 30
0.0
  0
VERTEX
  5
284
330
26A
100
AcDbEntity
  8
Sichtbar MD
100
AcDbVertex
100
AcDb2dVertex
 10
5.24725695139097
 20
113.5761753199964
 30
0.0
  0
SEQEND
  5
26D
330
26A
100
AcDbEntity
  8
Sichtbar MD
  0
LINE
  5
285
330
75
100
AcDbEntity
  8
Sichtbar MD
100
AcDbLine
 10
4.723365877273693
 20
120.0043784184724
 30
0.0
 11
4.711358556508288
 21
120.0043784184724
 31
0.0
  0
LINE
  5
286
330
75
100
AcDbEntity
  8
Sichtbar MD
100
AcDbLine
 10
4.711358556508286
 20
121.0043784333735
 30
0.0
 11
4.723365877273692
 21
121.0043784333735
 31
0.0
  0
POLYLINE
  5
287
330
75
100
AcDbEntity
  8
Sichtbar MD
100
AcDb2dPolyline
 66
     1
 10
0.0
 20
0.0
 30
0.0
 70
   128
  0
VERTEX
  5
288
330
287
100
AcDbEntity
  8
Sichtbar MD
100
AcDbVertex
100
AcDb2dVertex
 10
5.247256951390967
 20
117.0402768729597
 30
0.0
  0
VERTEX
  5
289
330
287
100
AcDbEntity
  8
Sichtbar MD
100
AcDbVertex
100
AcDb2dVertex
 10
5.202041799186931
 20
116.9605705617338
 30
0.0
  0
VERTEX
  5
28B
330
287
100
AcDbEntity
  8
Sichtbar MD
100
AcDbVertex
100
AcDb2dVertex
 10
5.159065956234202
 20
116.8819755791097
 30
0.0
  0
VERTEX
  5
28C
330
287
100
AcDbEntity
  8
Sichtbar MD
100
AcDbVertex
100
AcDb2dVertex
 10
5.118277268468604
 20
116.804420697537
 30
0.0
  0
VERTEX
  5
28D
330
287
100
AcDbEntity
  8
Sichtbar MD
100
AcDbVertex
100
AcDb2dVertex
 10
5.079627530633674
 20
116.7278379677206
 30
0.0
  0
VERTEX
  5
28E
330
287
100
AcDbEntity
  8
Sichtbar MD
100
AcDbVertex
100
AcDb2dVertex
 10
5.043072411774859
 20
116.6521609304815
 30
0.0
  0
VERTEX
  5
28F
330
287
100
AcDbEntity
  8
Sichtbar MD
100
AcDbVertex
100
AcDb2dVertex
 10
5.008571157216296
 20
116.5773255108267
 30
0.0
  0
VERTEX
  5
290
330
287
100
AcDbEntity
  8
Sichtbar MD
100
AcDbVertex
100
AcDb2dVertex
 10
4.976086476802097
 20
116.5032688258558
 30
0.0
  0
VERTEX
  5
291
330
287
100
AcDbEntity
  8
Sichtbar MD
100
AcDbVertex
100
AcDb2dVertex
 10
4.945584507643448
 20
116.4299300788313
 30
0.0
  0
VERTEX
  5
292
330
287
100
AcDbEntity
  8
Sichtbar MD
100
AcDbVertex
100
AcDb2dVertex
 10
4.917034609227644
 20
116.3572499631315
 30
0.0
  0
VERTEX
  5
293
330
287
100
AcDbEntity
  8
Sichtbar MD
100
AcDbVertex
100
AcDb2dVertex
 10
4.890409326165186
 20
116.2851700662046
 30
0.0
  0
VERTEX
  5
294
330
287
100
AcDbEntity
  8
Sichtbar MD
100
AcDbVertex
100
AcDb2dVertex
 10
4.865684267117845
 20
116.2136331675917
 30
0.0
  0
VERTEX
  5
295
330
287
100
AcDbEntity
  8
Sichtbar MD
100
AcDbVertex
100
AcDb2dVertex
 10
4.842838011666404
 20
116.1425835369497
 30
0.0
  0
VERTEX
  5
296
330
287
100
AcDbEntity
  8
Sichtbar MD
100
AcDbVertex
100
AcDb2dVertex
 10
4.82185211031066
 20
116.0719654439359
 30
0.0
  0
VERTEX
  5
297
330
287
100
AcDbEntity
  8
Sichtbar MD
100
AcDbVertex
100
AcDb2dVertex
 10
4.802710991337168
 20
116.0017243503004
 30
0.0
  0
VERTEX
  5
298
330
287
100
AcDbEntity
  8
Sichtbar MD
100
AcDbVertex
100
AcDb2dVertex
 10
4.785401937536168
 20
115.9318063138395
 30
0.0
  0
VERTEX
  5
299
330
287
100
AcDbEntity
  8
Sichtbar MD
100
AcDbVertex
100
AcDb2dVertex
 10
4.76991504429208
 20
115.8621573923498
 30
0.0
  0
VERTEX
  5
29A
330
287
100
AcDbEntity
  8
Sichtbar MD
100
AcDbVertex
100
AcDb2dVertex
 10
4.756243219583499
 20
115.7927242396742
 30
0.0
  0
VERTEX
  5
29B
330
287
100
AcDbEntity
  8
Sichtbar MD
100
AcDbVertex
100
AcDb2dVertex
 10
4.744382176998275
 20
115.7234532116323
 30
0.0
  0
VERTEX
  5
29C
330
287
100
AcDbEntity
  8
Sichtbar MD
100
AcDbVertex
100
AcDb2dVertex
 10
4.734330431076902
 20
115.6542912600904
 30
0.0
  0
VERTEX
  5
29D
330
287
100
AcDbEntity
  8
Sichtbar MD
100
AcDbVertex
100
AcDb2dVertex
 10
4.726089315938967
 20
115.5851844428449
 30
0.0
  0
VERTEX
  5
29E
330
287
100
AcDbEntity
  8
Sichtbar MD
100
AcDbVertex
100
AcDb2dVertex
 10
4.71966302020775
 20
115.5160794137388
 30
0.0
  0
VERTEX
  5
29F
330
287
100
AcDbEntity
  8
Sichtbar MD
100
AcDbVertex
100
AcDb2dVertex
 10
4.715058617569244
 20
115.4469213364988
 30
0.0
  0
VERTEX
  5
2A0
330
287
100
AcDbEntity
  8
Sichtbar MD
100
AcDbVertex
100
AcDb2dVertex
 10
4.7122861241067
 20
115.3776553748518
 30
0.0
  0
VERTEX
  5
2A1
330
287
100
AcDbEntity
  8
Sichtbar MD
100
AcDbVertex
100
AcDb2dVertex
 10
4.71135855650829
 20
115.3082260964781
 30
0.0
  0
SEQEND
  5
28A
330
287
100
AcDbEntity
  8
Sichtbar MD
  0
POLYLINE
  5
2A2
330
75
100
AcDbEntity
  8
Sichtbar MD
100
AcDb2dPolyline
 66
     1
 10
0.0
 20
0.0
 30
0.0
 70
   128
  0
VERTEX
  5
2A3
330
2A2
100
AcDbEntity
  8
Sichtbar MD
100
AcDbVertex
100
AcDb2dVertex
 10
4.723365877273693
 20
120.0043784184724
 30
0.0
  0
VERTEX
  5
2A4
330
2A2
100
AcDbEntity
  8
Sichtbar MD
100
AcDbVertex
100
AcDb2dVertex
 10
4.729650580541432
 20
119.8869674010545
 30
0.0
  0
VERTEX
  5
2A6
330
2A2
100
AcDbEntity
  8
Sichtbar MD
100
AcDbVertex
100
AcDb2dVertex
 10
4.737243531256184
 20
119.7695184229284
 30
0.0
  0
VERTEX
  5
2A7
330
2A2
100
AcDbEntity
  8
Sichtbar MD
100
AcDbVertex
100
AcDb2dVertex
 10
4.746142835340664
 20
119.6519656954675
 30
0.0
  0
VERTEX
  5
2A8
330
2A2
100
AcDbEntity
  8
Sichtbar MD
100
AcDbVertex
100
AcDb2dVertex
 10
4.756348081848785
 20
119.5342434672981
 30
0.0
  0
VERTEX
  5
2A9
330
2A2
100
AcDbEntity
  8
Sichtbar MD
100
AcDbVertex
100
AcDb2dVertex
 10
4.767860323175058
 20
119.4162862478166
 30
0.0
  0
VERTEX
  5
2AA
330
2A2
100
AcDbEntity
  8
Sichtbar MD
100
AcDbVertex
100
AcDb2dVertex
 10
4.780682078547045
 20
119.2980287699371
 30
0.0
  0
VERTEX
  5
2AB
330
2A2
100
AcDbEntity
  8
Sichtbar MD
100
AcDbVertex
100
AcDb2dVertex
 10
4.794817315398916
 20
119.1794053195387
 30
0.0
  0
VERTEX
  5
2AC
330
2A2
100
AcDbEntity
  8
Sichtbar MD
100
AcDbVertex
100
AcDb2dVertex
 10
4.810271486624345
 20
119.0603501079946
 30
0.0
  0
VERTEX
  5
2AD
330
2A2
100
AcDbEntity
  8
Sichtbar MD
100
AcDbVertex
100
AcDb2dVertex
 10
4.827051470040545
 20
118.9407970486551
 30
0.0
  0
VERTEX
  5
2AE
330
2A2
100
AcDbEntity
  8
Sichtbar MD
100
AcDbVertex
100
AcDb2dVertex
 10
4.845165666177138
 20
118.8206796823412
 30
0.0
  0
VERTEX
  5
2AF
330
2A2
100
AcDbEntity
  8
Sichtbar MD
100
AcDbVertex
100
AcDb2dVertex
 10
4.864623928426966
 20
118.6999306558042
 30
0.0
  0
VERTEX
  5
2B0
330
2A2
100
AcDbEntity
  8
Sichtbar MD
100
AcDbVertex
100
AcDb2dVertex
 10
4.885437628238663
 20
118.5784821687609
 30
0.0
  0
VERTEX
  5
2B1
330
2A2
100
AcDbEntity
  8
Sichtbar MD
100
AcDbVertex
100
AcDb2dVertex
 10
4.90761968305634
 20
118.4562655268579
 30
0.0
  0
VERTEX
  5
2B2
330
2A2
100
AcDbEntity
  8
Sichtbar MD
100
AcDbVertex
100
AcDb2dVertex
 10
4.931184528379903
 20
118.3332111416727
 30
0.0
  0
VERTEX
  5
2B3
330
2A2
100
AcDbEntity
  8
Sichtbar MD
100
AcDbVertex
100
AcDb2dVertex
 10
4.956148238836989
 20
118.2092479346662
 30
0.0
  0
VERTEX
  5
2B4
330
2A2
100
AcDbEntity
  8
Sichtbar MD
100
AcDbVertex
100
AcDb2dVertex
 10
4.982528472303615
 20
118.0843040822416
 30
0.0
  0
VERTEX
  5
2B5
330
2A2
100
AcDbEntity
  8
Sichtbar MD
100
AcDbVertex
100
AcDb2dVertex
 10
5.010344544409976
 20
117.9583061216741
 30
0.0
  0
VERTEX
  5
2B6
330
2A2
100
AcDbEntity
  8
Sichtbar MD
100
AcDbVertex
100
AcDb2dVertex
 10
5.03961750304626
 20
117.8311789511114
 30
0.0
  0
VERTEX
  5
2B7
330
2A2
100
AcDbEntity
  8
Sichtbar MD
100
AcDbVertex
100
AcDb2dVertex
 10
5.070370146989093
 20
117.7028459785848
 30
0.0
  0
VERTEX
  5
2B8
330
2A2
100
AcDbEntity
  8
Sichtbar MD
100
AcDbVertex
100
AcDb2dVertex
 10
5.102627063154445
 20
117.5732291220098
 30
0.0
  0
VERTEX
  5
2B9
330
2A2
100
AcDbEntity
  8
Sichtbar MD
100
AcDbVertex
100
AcDb2dVertex
 10
5.136414775609241
 20
117.4422473190695
 30
0.0
  0
VERTEX
  5
2BA
330
2A2
100
AcDbEntity
  8
Sichtbar MD
100
AcDbVertex
100
AcDb2dVertex
 10
5.171761671065555
 20
117.3098186133772
 30
0.0
  0
VERTEX
  5
2BB
330
2A2
100
AcDbEntity
  8
Sichtbar MD
100
AcDbVertex
100
AcDb2dVertex
 10
5.208698222398028
 20
117.1758574722677
 30
0.0
  0
VERTEX
  5
2BC
330
2A2
100
AcDbEntity
  8
Sichtbar MD
100
AcDbVertex
100
AcDb2dVertex
 10
5.247256951390967
 20
117.0402768729597
 30
0.0
  0
SEQEND
  5
2A5
330
2A2
100
AcDbEntity
  8
Sichtbar MD
  0
POLYLINE
  5
2BD
330
75
100
AcDbEntity
  8
Sichtbar MD
100
AcDb2dPolyline
 66
     1
 10
0.0
 20
0.0
 30
0.0
 70
   128
  0
VERTEX
  5
2BE
330
2BD
100
AcDbEntity
  8
Sichtbar MD
100
AcDbVertex
100
AcDb2dVertex
 10
5.247256951390964
 20
123.9684799788862
 30
0.0
  0
VERTEX
  5
2BF
330
2BD
100
AcDbEntity
  8
Sichtbar MD
100
AcDbVertex
100
AcDb2dVertex
 10
5.208698222398025
 20
123.8328993795782
 30
0.0
  0
VERTEX
  5
2C1
330
2BD
100
AcDbEntity
  8
Sichtbar MD
100
AcDbVertex
100
AcDb2dVertex
 10
5.171761671065551
 20
123.6989382384687
 30
0.0
  0
VERTEX
  5
2C2
330
2BD
100
AcDbEntity
  8
Sichtbar MD
100
AcDbVertex
100
AcDb2dVertex
 10
5.136414775609237
 20
123.5665095327764
 30
0.0
  0
VERTEX
  5
2C3
330
2BD
100
AcDbEntity
  8
Sichtbar MD
100
AcDbVertex
100
AcDb2dVertex
 10
5.102627063154441
 20
123.4355277298361
 30
0.0
  0
VERTEX
  5
2C4
330
2BD
100
AcDbEntity
  8
Sichtbar MD
100
AcDbVertex
100
AcDb2dVertex
 10
5.070370146989089
 20
123.3059108732611
 30
0.0
  0
VERTEX
  5
2C5
330
2BD
100
AcDbEntity
  8
Sichtbar MD
100
AcDbVertex
100
AcDb2dVertex
 10
5.039617503046256
 20
123.1775779007345
 30
0.0
  0
VERTEX
  5
2C6
330
2BD
100
AcDbEntity
  8
Sichtbar MD
100
AcDbVertex
100
AcDb2dVertex
 10
5.010344544409973
 20
123.0504507301718
 30
0.0
  0
VERTEX
  5
2C7
330
2BD
100
AcDbEntity
  8
Sichtbar MD
100
AcDbVertex
100
AcDb2dVertex
 10
4.982528472303611
 20
122.9244527696043
 30
0.0
  0
VERTEX
  5
2C8
330
2BD
100
AcDbEntity
  8
Sichtbar MD
100
AcDbVertex
100
AcDb2dVertex
 10
4.956148238836986
 20
122.7995089171797
 30
0.0
  0
VERTEX
  5
2C9
330
2BD
100
AcDbEntity
  8
Sichtbar MD
100
AcDbVertex
100
AcDb2dVertex
 10
4.931184528379899
 20
122.6755457101732
 30
0.0
  0
VERTEX
  5
2CA
330
2BD
100
AcDbEntity
  8
Sichtbar MD
100
AcDbVertex
100
AcDb2dVertex
 10
4.907619683056337
 20
122.5524913249879
 30
0.0
  0
VERTEX
  5
2CB
330
2BD
100
AcDbEntity
  8
Sichtbar MD
100
AcDbVertex
100
AcDb2dVertex
 10
4.885437628238661
 20
122.430274683085
 30
0.0
  0
VERTEX
  5
2CC
330
2BD
100
AcDbEntity
  8
Sichtbar MD
100
AcDbVertex
100
AcDb2dVertex
 10
4.864623928426964
 20
122.3088261960417
 30
0.0
  0
VERTEX
  5
2CD
330
2BD
100
AcDbEntity
  8
Sichtbar MD
100
AcDbVertex
100
AcDb2dVertex
 10
4.845165666177137
 20
122.1880771695047
 30
0.0
  0
VERTEX
  5
2CE
330
2BD
100
AcDbEntity
  8
Sichtbar MD
100
AcDbVertex
100
AcDb2dVertex
 10
4.827051470040543
 20
122.0679598031908
 30
0.0
  0
VERTEX
  5
2CF
330
2BD
100
AcDbEntity
  8
Sichtbar MD
100
AcDbVertex
100
AcDb2dVertex
 10
4.810271486624343
 20
121.9484067438513
 30
0.0
  0
VERTEX
  5
2D0
330
2BD
100
AcDbEntity
  8
Sichtbar MD
100
AcDbVertex
100
AcDb2dVertex
 10
4.794817315398915
 20
121.8293515323072
 30
0.0
  0
VERTEX
  5
2D1
330
2BD
100
AcDbEntity
  8
Sichtbar MD
100
AcDbVertex
100
AcDb2dVertex
 10
4.780682078547044
 20
121.7107280819088
 30
0.0
  0
VERTEX
  5
2D2
330
2BD
100
AcDbEntity
  8
Sichtbar MD
100
AcDbVertex
100
AcDb2dVertex
 10
4.767860323175056
 20
121.5924706040292
 30
0.0
  0
VERTEX
  5
2D3
330
2BD
100
AcDbEntity
  8
Sichtbar MD
100
AcDbVertex
100
AcDb2dVertex
 10
4.756348081848783
 20
121.4745133845478
 30
0.0
  0
VERTEX
  5
2D4
330
2BD
100
AcDbEntity
  8
Sichtbar MD
100
AcDbVertex
100
AcDb2dVertex
 10
4.746142835340662
 20
121.3567911563783
 30
0.0
  0
VERTEX
  5
2D5
330
2BD
100
AcDbEntity
  8
Sichtbar MD
100
AcDbVertex
100
AcDb2dVertex
 10
4.737243531256182
 20
121.2392384289175
 30
0.0
  0
VERTEX
  5
2D6
330
2BD
100
AcDbEntity
  8
Sichtbar MD
100
AcDbVertex
100
AcDb2dVertex
 10
4.72965058054143
 20
121.1217894507914
 30
0.0
  0
VERTEX
  5
2D7
330
2BD
100
AcDbEntity
  8
Sichtbar MD
100
AcDbVertex
100
AcDb2dVertex
 10
4.723365877273692
 20
121.0043784333735
 30
0.0
  0
SEQEND
  5
2C0
330
2BD
100
AcDbEntity
  8
Sichtbar MD
  0
POLYLINE
  5
2D8
330
75
100
AcDbEntity
  8
Sichtbar MD
100
AcDb2dPolyline
 66
     1
 10
0.0
 20
0.0
 30
0.0
 70
   128
  0
VERTEX
  5
2D9
330
2D8
100
AcDbEntity
  8
Sichtbar MD
100
AcDbVertex
100
AcDb2dVertex
 10
4.711358556508283
 20
125.7005307553678
 30
0.0
  0
VERTEX
  5
2DA
330
2D8
100
AcDbEntity
  8
Sichtbar MD
100
AcDbVertex
100
AcDb2dVertex
 10
4.712286124106693
 20
125.6311014769941
 30
0.0
  0
VERTEX
  5
2DC
330
2D8
100
AcDbEntity
  8
Sichtbar MD
100
AcDbVertex
100
AcDb2dVertex
 10
4.715058617569237
 20
125.5618355153471
 30
0.0
  0
VERTEX
  5
2DD
330
2D8
100
AcDbEntity
  8
Sichtbar MD
100
AcDbVertex
100
AcDb2dVertex
 10
4.719663020207743
 20
125.4926774381071
 30
0.0
  0
VERTEX
  5
2DE
330
2D8
100
AcDbEntity
  8
Sichtbar MD
100
AcDbVertex
100
AcDb2dVertex
 10
4.72608931593896
 20
125.4235724090009
 30
0.0
  0
VERTEX
  5
2DF
330
2D8
100
AcDbEntity
  8
Sichtbar MD
100
AcDbVertex
100
AcDb2dVertex
 10
4.734330431076894
 20
125.3544655917555
 30
0.0
  0
VERTEX
  5
2E0
330
2D8
100
AcDbEntity
  8
Sichtbar MD
100
AcDbVertex
100
AcDb2dVertex
 10
4.744382176998268
 20
125.2853036402136
 30
0.0
  0
VERTEX
  5
2E1
330
2D8
100
AcDbEntity
  8
Sichtbar MD
100
AcDbVertex
100
AcDb2dVertex
 10
4.756243219583492
 20
125.2160326121717
 30
0.0
  0
VERTEX
  5
2E2
330
2D8
100
AcDbEntity
  8
Sichtbar MD
100
AcDbVertex
100
AcDb2dVertex
 10
4.769915044292073
 20
125.1465994594961
 30
0.0
  0
VERTEX
  5
2E3
330
2D8
100
AcDbEntity
  8
Sichtbar MD
100
AcDbVertex
100
AcDb2dVertex
 10
4.78540193753616
 20
125.0769505380064
 30
0.0
  0
VERTEX
  5
2E4
330
2D8
100
AcDbEntity
  8
Sichtbar MD
100
AcDbVertex
100
AcDb2dVertex
 10
4.802710991337161
 20
125.0070325015455
 30
0.0
  0
VERTEX
  5
2E5
330
2D8
100
AcDbEntity
  8
Sichtbar MD
100
AcDbVertex
100
AcDb2dVertex
 10
4.821852110310655
 20
124.9367914079099
 30
0.0
  0
VERTEX
  5
2E6
330
2D8
100
AcDbEntity
  8
Sichtbar MD
100
AcDbVertex
100
AcDb2dVertex
 10
4.842838011666398
 20
124.8661733148962
 30
0.0
  0
VERTEX
  5
2E7
330
2D8
100
AcDbEntity
  8
Sichtbar MD
100
AcDbVertex
100
AcDb2dVertex
 10
4.865684267117839
 20
124.7951236842542
 30
0.0
  0
VERTEX
  5
2E8
330
2D8
100
AcDbEntity
  8
Sichtbar MD
100
AcDbVertex
100
AcDb2dVertex
 10
4.890409326165181
 20
124.7235867856413
 30
0.0
  0
VERTEX
  5
2E9
330
2D8
100
AcDbEntity
  8
Sichtbar MD
100
AcDbVertex
100
AcDb2dVertex
 10
4.917034609227639
 20
124.6515068887144
 30
0.0
  0
VERTEX
  5
2EA
330
2D8
100
AcDbEntity
  8
Sichtbar MD
100
AcDbVertex
100
AcDb2dVertex
 10
4.945584507643443
 20
124.5788267730146
 30
0.0
  0
VERTEX
  5
2EB
330
2D8
100
AcDbEntity
  8
Sichtbar MD
100
AcDbVertex
100
AcDb2dVertex
 10
4.976086476802092
 20
124.5054880259901
 30
0.0
  0
VERTEX
  5
2EC
330
2D8
100
AcDbEntity
  8
Sichtbar MD
100
AcDbVertex
100
AcDb2dVertex
 10
5.008571157216293
 20
124.4314313410192
 30
0.0
  0
VERTEX
  5
2ED
330
2D8
100
AcDbEntity
  8
Sichtbar MD
100
AcDbVertex
100
AcDb2dVertex
 10
5.043072411774856
 20
124.3565959213644
 30
0.0
  0
VERTEX
  5
2EE
330
2D8
100
AcDbEntity
  8
Sichtbar MD
100
AcDbVertex
100
AcDb2dVertex
 10
5.07962753063367
 20
124.2809188841253
 30
0.0
  0
VERTEX
  5
2EF
330
2D8
100
AcDbEntity
  8
Sichtbar MD
100
AcDbVertex
100
AcDb2dVertex
 10
5.118277268468601
 20
124.2043361543089
 30
0.0
  0
VERTEX
  5
2F0
330
2D8
100
AcDbEntity
  8
Sichtbar MD
100
AcDbVertex
100
AcDb2dVertex
 10
5.159065956234199
 20
124.1267812727361
 30
0.0
  0
VERTEX
  5
2F1
330
2D8
100
AcDbEntity
  8
Sichtbar MD
100
AcDbVertex
100
AcDb2dVertex
 10
5.202041799186927
 20
124.0481862901121
 30
0.0
  0
VERTEX
  5
2F2
330
2D8
100
AcDbEntity
  8
Sichtbar MD
100
AcDbVertex
100
AcDb2dVertex
 10
5.247256951390964
 20
123.9684799788862
 30
0.0
  0
SEQEND
  5
2DB
330
2D8
100
AcDbEntity
  8
Sichtbar MD
  0
LINE
  5
2F3
330
75
100
AcDbEntity
  8
Sichtbar MD
100
AcDbLine
 10
4.711358556508283
 20
126.5043784259229
 30
0.0
 11
5.247256941370532
 21
127.4325816561985
 31
0.0
  0
LINE
  5
2F4
330
75
100
AcDbEntity
  8
Sichtbar MD
100
AcDbLine
 10
4.71135855650829
 20
114.5043784259229
 30
0.0
 11
5.247256941370541
 21
113.5761751956474
 31
0.0
  0
LINE
  5
2F5
330
75
100
AcDbEntity
  8
Sichtbar MD
100
AcDbLine
 10
4.711358556508288
 20
120.0043784259229
 30
0.0
 11
4.711358556508288
 21
121.0043784259229
 31
0.0
  0
LINE
  5
2F6
330
75
100
AcDbEntity
  8
Sichtbar MD
100
AcDbLine
 10
13.21135855650829
 20
112.5043784259229
 30
0.0
 11
13.21135855650829
 21
120.0043784259229
 31
0.0
  0
LINE
  5
2F7
330
75
100
AcDbEntity
  8
Sichtbar MD
100
AcDbLine
 10
14.21135855650829
 20
112.5043784259229
 30
0.0
 11
14.21135855650829
 21
120.0043784259229
 31
0.0
  0
LINE
  5
2F8
330
75
100
AcDbEntity
  8
Sichtbar MD
100
AcDbLine
 10
14.21135855650829
 20
121.0043784259229
 30
0.0
 11
14.21135855650828
 21
128.5043784259229
 31
0.0
  0
LINE
  5
2F9
330
75
100
AcDbEntity
  8
Sichtbar MD
100
AcDbLine
 10
13.21135855650829
 20
121.0043784259229
 30
0.0
 11
13.21135855650828
 21
128.5043784259229
 31
0.0
  0
LINE
  5
2FA
330
75
100
AcDbEntity
  8
Sichtbar MD
100
AcDbLine
 10
13.21135855650829
 20
112.504378425923
 30
0.0
 11
14.2113585565083
 21
112.504378425923
 31
0.0
  0
LINE
  5
2FB
330
75
100
AcDbEntity
  8
Sichtbar MD
100
AcDbLine
 10
15.86924238899702
 20
112.9486070599829
 30
0.0
 11
14.2113585565083
 21
112.504378425923
 31
0.0
  0
LINE
  5
2FC
330
75
100
AcDbEntity
  8
Sichtbar MD
100
AcDbLine
 10
15.86924238899699
 20
128.060149791863
 30
0.0
 11
14.21135855650829
 21
128.5043784259229
 31
0.0
  0
LINE
  5
2FD
330
75
100
AcDbEntity
  8
Sichtbar MD
100
AcDbLine
 10
13.21135855650828
 20
128.5043784259229
 30
0.0
 11
14.21135855650829
 21
128.5043784259229
 31
0.0
  0
LINE
  5
2FE
330
75
100
AcDbEntity
  8
Sichtbar MD
100
AcDbLine
 10
5.247256941370541
 20
113.5761751956474
 30
0.0
 11
13.2113585565083
 21
113.5761751956474
 31
0.0
  0
LINE
  5
2FF
330
75
100
AcDbEntity
  8
Sichtbar MD
100
AcDbLine
 10
5.247256941370535
 20
123.9684800410607
 30
0.0
 11
13.21135855650828
 21
123.9684800410607
 31
0.0
  0
LINE
  5
300
330
75
100
AcDbEntity
  8
Sichtbar MD
100
AcDbLine
 10
5.247256941370538
 20
117.0402768107852
 30
0.0
 11
13.21135855650828
 21
117.0402768107852
 31
0.0
  0
LINE
  5
301
330
75
100
AcDbEntity
  8
Sichtbar MD
100
AcDbLine
 10
5.247256941370515
 20
127.4325816561985
 30
0.0
 11
13.21135855650828
 21
127.4325816561985
 31
0.0
  0
LINE
  5
302
330
75
100
AcDbEntity
  8
Sichtbar MD
100
AcDbLine
 10
14.21135855650828
 20
120.0043784259229
 30
0.0
 11
13.21135855650828
 21
120.0043784259229
 31
0.0
  0
LINE
  5
303
330
75
100
AcDbEntity
  8
Sichtbar MD
100
AcDbLine
 10
15.86924196219371
 20
120.0043784184724
 30
0.0
 11
14.21135843729899
 21
120.0043784184724
 31
0.0
  0
LINE
  5
304
330
75
100
AcDbEntity
  8
Sichtbar MD
100
AcDbLine
 10
13.21135855650828
 20
120.0043784259229
 30
0.0
 11
4.72336587713956
 21
120.0043784259229
 31
0.0
  0
LINE
  5
305
330
75
100
AcDbEntity
  8
Sichtbar MD
100
AcDbLine
 10
14.21135843729899
 20
121.0043784333735
 30
0.0
 11
15.86924196219371
 21
121.0043784333735
 31
0.0
  0
LINE
  5
306
330
75
100
AcDbEntity
  8
Sichtbar MD
100
AcDbLine
 10
13.21135855650828
 20
121.0043784259229
 30
0.0
 11
14.21135855650828
 21
121.0043784259229
 31
0.0
  0
LINE
  5
307
330
75
100
AcDbEntity
  8
Sichtbar MD
100
AcDbLine
 10
4.723365877139559
 20
121.0043784259229
 30
0.0
 11
13.21135855650828
 21
121.0043784259229
 31
0.0
  0
LINE
  5
308
330
75
100
AcDbEntity
  8
Sichtbar MD
100
AcDbLine
 10
56.7692423889969
 20
107.5043784259229
 30
0.0
 11
56.7692423889969
 21
133.5043784259229
 31
0.0
  0
LINE
  5
309
330
75
100
AcDbEntity
  8
Sichtbar MD
100
AcDbLine
 10
62.7692423889969
 20
97.50437842592297
 30
0.0
 11
62.7692423889969
 21
143.5043784259228
 31
0.0
  0
LINE
  5
30A
330
75
100
AcDbEntity
  8
Sichtbar MD
100
AcDbLine
 10
65.7692423889969
 20
97.50437842592297
 30
0.0
 11
65.7692423889969
 21
143.5043784259228
 31
0.0
  0
LINE
  5
30B
330
75
100
AcDbEntity
  8
Sichtbar MD
100
AcDbLine
 10
56.7692423889969
 20
133.5043784259229
 30
0.0
 11
57.78776950074881
 21
133.5043784259229
 31
0.0
  0
LINE
  5
30C
330
75
100
AcDbEntity
  8
Sichtbar MD
100
AcDbLine
 10
56.7692423889969
 20
107.5043784259229
 30
0.0
 11
57.78776950074881
 21
107.5043784259229
 31
0.0
  0
LINE
  5
30D
330
75
100
AcDbEntity
  8
Sichtbar MD
100
AcDbLine
 10
60.68554697961602
 20
135.7279212906153
 30
0.0
 11
62.7692423889969
 21
143.5043784259228
 31
0.0
  0
LINE
  5
30E
330
75
100
AcDbEntity
  8
Sichtbar MD
100
AcDbLine
 10
60.68554697961602
 20
105.2808355612305
 30
0.0
 11
62.7692423889969
 21
97.50437842592297
 31
0.0
  0
LINE
  5
30F
330
75
100
AcDbEntity
  8
Sichtbar MD
100
AcDbLine
 10
62.7692423889969
 20
143.5043784259228
 30
0.0
 11
65.76924238899692
 21
143.5043784259228
 31
0.0
  0
LINE
  5
310
330
75
100
AcDbEntity
  8
Sichtbar MD
100
AcDbLine
 10
62.7692423889969
 20
97.50437842592297
 30
0.0
 11
65.76924238899692
 21
97.50437842592297
 31
0.0
  0
ARC
  5
311
330
75
100
AcDbEntity
  8
Sichtbar MD
100
AcDbCircle
 10
57.78776950074881
 20
104.5043784259229
 30
0.0
 40
3.0
100
AcDbArc
 50
15.00000000000007
 51
90.0
  0
ARC
  5
312
330
75
100
AcDbEntity
  8
Sichtbar MD
100
AcDbCircle
 10
57.78776950074881
 20
136.5043784259229
 30
0.0
 40
3.0
100
AcDbArc
 50
269.9999999999998
 51
344.9999999999999
  0
ENDSEC
  0
SECTION
  2
OBJECTS
  0
DICTIONARY
  5
C
330
0
100
AcDbDictionary
281
     1
  3
ACAD_COLOR
350
6B
  3
ACAD_GROUP
350
D
  3
ACAD_LAYOUT
350
6A
  3
ACAD_MATERIAL
350
10
  3
ACAD_MLEADERSTYLE
350
6E
  3
ACAD_MLINESTYLE
350
67
  3
ACAD_PLOTSETTINGS
350
69
  3
ACAD_PLOTSTYLENAME
350
E
  3
ACAD_SCALELIST
350
3A
  3
ACAD_TABLESTYLE
350
6C
  3
ACAD_VISUALSTYLE
350
29
  3
ACDB_RECOMPOSE_DATA
350
31B
  3
AcDbVariableDictionary
350
313
  0
DICTIONARY
  5
6B
102
{ACAD_REACTORS
330
C
102
}
330
C
100
AcDbDictionary
281
     1
  0
DICTIONARY
  5
D
102
{ACAD_REACTORS
330
C
102
}
330
C
100
AcDbDictionary
281
     1
  0
DICTIONARY
  5
6A
102
{ACAD_REACTORS
330
C
102
}
330
C
100
AcDbDictionary
281
     1
  3
Layout1
350
74
  3
Layout2
350
7C
  3
Model
350
78
  0
DICTIONARY
  5
10
102
{ACAD_REACTORS
330
C
102
}
330
C
100
AcDbDictionary
281
     1
  3
ByBlock
350
19
  3
ByLayer
350
11
  3
Global
350
21
  0
DICTIONARY
  5
6E
102
{ACAD_REACTORS
330
C
102
}
330
C
100
AcDbDictionary
281
     1
  3
Standard
350
6F
  0
DICTIONARY
  5
67
102
{ACAD_REACTORS
330
C
102
}
330
C
100
AcDbDictionary
281
     1
  3
Standard
350
68
  0
DICTIONARY
  5
69
102
{ACAD_REACTORS
330
C
102
}
330
C
100
AcDbDictionary
281
     1
  0
ACDBDICTIONARYWDFLT
  5
E
102
{ACAD_REACTORS
330
C
102
}
330
C
100
AcDbDictionary
281
     1
  3
Normal
350
F
100
AcDbDictionaryWithDefault
340
F
  0
DICTIONARY
  5
3A
102
{ACAD_REACTORS
330
C
102
}
330
C
100
AcDbDictionary
281
     1
  3
A0
350
3B
  3
A1
350
3C
  3
A2
350
3D
  3
A3
350
3E
  3
A4
350
3F
  3
A5
350
40
  3
A6
350
41
  3
A7
350
42
  3
A8
350
43
  3
A9
350
44
  3
B0
350
45
  3
B1
350
46
  3
B2
350
47
  3
B3
350
48
  3
B4
350
49
  3
B5
350
4A
  3
B6
350
4B
  3
B7
350
4C
  3
B8
350
4D
  3
B9
350
4E
  3
C0
350
4F
  3
C1
350
50
  3
C2
350
51
  3
C3
350
52
  3
C4
350
53
  3
C5
350
54
  3
C6
350
55
  3
C7
350
56
  3
C8
350
57
  3
C9
350
58
  3
D0
350
59
  3
D1
350
5A
  3
D2
350
5B
  0
DICTIONARY
  5
6C
102
{ACAD_REACTORS
330
C
102
}
330
C
100
AcDbDictionary
281
     1
  3
Standard
350
6D
  0
DICTIONARY
  5
29
102
{ACAD_REACTORS
330
C
102
}
330
C
100
AcDbDictionary
281
     1
  3
2dWireframe
350
2F
  3
3D Hidden
350
31
  3
3dWireframe
350
30
  3
Basic
350
2E
  3
Brighten
350
35
  3
ColorChange
350
39
  3
Conceptual
350
32
  3
Dim
350
34
  3
Facepattern
350
38
  3
Flat
350
2A
  3
FlatWithEdges
350
2B
  3
Gouraud
350
2C
  3
GouraudWithEdges
350
2D
  3
Linepattern
350
37
  3
Realistic
350
33
  3
Thicken
350
36
  0
XRECORD
  5
31B
102
{ACAD_REACTORS
330
C
102
}
330
C
100
AcDbXrecord
280
     1
 90
        1
330
6D
  0
DICTIONARY
  5
313
102
{ACAD_REACTORS
330
C
102
}
330
C
100
AcDbDictionary
281
     1
  3
CANNOSCALE
350
317
  3
CMLEADERSTYLE
350
315
  3
CTABLESTYLE
350
314
  3
LIGHTINGUNITS
350
318
  3
MSLTSCALE
350
316
  0
LAYOUT
  5
74
102
{ACAD_REACTORS
330
6A
102
}
330
6A
100
AcDbPlotSettings
  1

  2

  4

  6

 40
0.0
 41
0.0
 42
0.0
 43
0.0
 44
0.0
 45
0.0
 46
0.0
 47
0.0
 48
0.0
 49
0.0
140
0.0
141
0.0
142
1.0
143
1.0
 70
   688
 72
     0
 73
     0
 74
     5
  7

 75
    16
147
1.0
 76
     0
 77
     2
 78
   300
148
0.0
149
0.0
100
AcDbLayout
  1
Layout1
 70
     1
 71
     1
 10
0.0
 20
0.0
 11
12.0
 21
9.0
 12
0.0
 22
0.0
 32
0.0
 14
0.0
 24
0.0
 34
0.0
 15
0.0
 25
0.0
 35
0.0
146
0.0
 13
0.0
 23
0.0
 33
0.0
 16
1.0
 26
0.0
 36
0.0
 17
0.0
 27
1.0
 37
0.0
 76
     0
330
71
  0
LAYOUT
  5
7C
102
{ACAD_REACTORS
330
6A
102
}
330
6A
100
AcDbPlotSettings
  1

  2

  4

  6

 40
0.0
 41
0.0
 42
0.0
 43
0.0
 44
0.0
 45
0.0
 46
0.0
 47
0.0
 48
0.0
 49
0.0
140
0.0
141
0.0
142
1.0
143
1.0
 70
   688
 72
     0
 73
     0
 74
     5
  7

 75
    16
147
1.0
 76
     0
 77
     2
 78
   300
148
0.0
149
0.0
100
AcDbLayout
  1
Layout2
 70
     1
 71
     2
 10
0.0
 20
0.0
 11
12.0
 21
9.0
 12
0.0
 22
0.0
 32
0.0
 14
0.0
 24
0.0
 34
0.0
 15
0.0
 25
0.0
 35
0.0
146
0.0
 13
0.0
 23
0.0
 33
0.0
 16
1.0
 26
0.0
 36
0.0
 17
0.0
 27
1.0
 37
0.0
 76
     0
330
79
  0
LAYOUT
  5
78
102
{ACAD_REACTORS
330
6A
102
}
330
6A
100
AcDbPlotSettings
  1

  2

  4

  6

 40
0.0
 41
0.0
 42
0.0
 43
0.0
 44
0.0
 45
0.0
 46
0.0
 47
0.0
 48
0.0
 49
0.0
140
0.0
141
0.0
142
1.0
143
1.0
 70
  1712
 72
     0
 73
     0
 74
     0
  7

 75
     0
147
1.0
 76
     0
 77
     2
 78
   300
148
0.0
149
0.0
100
AcDbLayout
  1
Model
 70
     1
 71
     0
 10
0.0
 20
0.0
 11
12.0
 21
9.0
 12
0.0
 22
0.0
 32
0.0
 14
0.0
 24
0.0
 34
0.0
 15
0.0
 25
0.0
 35
0.0
146
0.0
 13
0.0
 23
0.0
 33
0.0
 16
1.0
 26
0.0
 36
0.0
 17
0.0
 27
1.0
 37
0.0
 76
     0
330
75
  0
MATERIAL
  5
19
102
{ACAD_XDICTIONARY
360
1A
102
}
102
{ACAD_REACTORS
330
10
102
}
330
10
100
AcDbMaterial
  1
ByBlock
 72
     0
 43
0.0208333333333333
 43
0.0
 43
0.0
 43
0.0
 43
0.0
 43
0.0208333333333333
 43
0.0
 43
0.0
 43
0.0
 43
0.0
 43
1.0
 43
0.0
 43
0.0
 43
0.0
 43
0.0
 43
1.0
 77
     0
 47
0.0208333333333333
 47
0.0
 47
0.0
 47
0.0
 47
0.0
 47
0.0208333333333333
 47
0.0
 47
0.0
 47
0.0
 47
0.0
 47
1.0
 47
0.0
 47
0.0
 47
0.0
 47
0.0
 47
1.0
171
     0
 49
0.0208333333333333
 49
0.0
 49
0.0
 49
0.0
 49
0.0
 49
0.0208333333333333
 49
0.0
 49
0.0
 49
0.0
 49
0.0
 49
1.0
 49
0.0
 49
0.0
 49
0.0
 49
0.0
 49
1.0
175
     0
142
0.0208333333333333
142
0.0
142
0.0
142
0.0
142
0.0
142
0.0208333333333333
142
0.0
142
0.0
142
0.0
142
0.0
142
1.0
142
0.0
142
0.0
142
0.0
142
0.0
142
1.0
179
     0
144
0.0208333333333333
144
0.0
144
0.0
144
0.0
144
0.0
144
0.0208333333333333
144
0.0
144
0.0
144
0.0
144
0.0
144
1.0
144
0.0
144
0.0
144
0.0
144
0.0
144
1.0
147
0.0208333333333333
147
0.0
147
0.0
147
0.0
147
0.0
147
0.0208333333333333
147
0.0
147
0.0
147
0.0
147
0.0
147
1.0
147
0.0
147
0.0
147
0.0
147
0.0
147
1.0
  0
MATERIAL
  5
11
102
{ACAD_XDICTIONARY
360
12
102
}
102
{ACAD_REACTORS
330
10
102
}
330
10
100
AcDbMaterial
  1
ByLayer
 72
     0
 43
0.0208333333333333
 43
0.0
 43
0.0
 43
0.0
 43
0.0
 43
0.0208333333333333
 43
0.0
 43
0.0
 43
0.0
 43
0.0
 43
1.0
 43
0.0
 43
0.0
 43
0.0
 43
0.0
 43
1.0
 77
     0
 47
0.0208333333333333
 47
0.0
 47
0.0
 47
0.0
 47
0.0
 47
0.0208333333333333
 47
0.0
 47
0.0
 47
0.0
 47
0.0
 47
1.0
 47
0.0
 47
0.0
 47
0.0
 47
0.0
 47
1.0
171
     0
 49
0.0208333333333333
 49
0.0
 49
0.0
 49
0.0
 49
0.0
 49
0.0208333333333333
 49
0.0
 49
0.0
 49
0.0
 49
0.0
 49
1.0
 49
0.0
 49
0.0
 49
0.0
 49
0.0
 49
1.0
175
     0
142
0.0208333333333333
142
0.0
142
0.0
142
0.0
142
0.0
142
0.0208333333333333
142
0.0
142
0.0
142
0.0
142
0.0
142
1.0
142
0.0
142
0.0
142
0.0
142
0.0
142
1.0
179
     0
144
0.0208333333333333
144
0.0
144
0.0
144
0.0
144
0.0
144
0.0208333333333333
144
0.0
144
0.0
144
0.0
144
0.0
144
1.0
144
0.0
144
0.0
144
0.0
144
0.0
144
1.0
147
0.0208333333333333
147
0.0
147
0.0
147
0.0
147
0.0
147
0.0208333333333333
147
0.0
147
0.0
147
0.0
147
0.0
147
1.0
147
0.0
147
0.0
147
0.0
147
0.0
147
1.0
  0
MATERIAL
  5
21
102
{ACAD_XDICTIONARY
360
22
102
}
102
{ACAD_REACTORS
330
10
102
}
330
10
100
AcDbMaterial
  1
Global
 72
     0
 43
0.0208333333333333
 43
0.0
 43
0.0
 43
0.0
 43
0.0
 43
0.0208333333333333
 43
0.0
 43
0.0
 43
0.0
 43
0.0
 43
1.0
 43
0.0
 43
0.0
 43
0.0
 43
0.0
 43
1.0
 77
     0
 47
0.0208333333333333
 47
0.0
 47
0.0
 47
0.0
 47
0.0
 47
0.0208333333333333
 47
0.0
 47
0.0
 47
0.0
 47
0.0
 47
1.0
 47
0.0
 47
0.0
 47
0.0
 47
0.0
 47
1.0
171
     0
 49
0.0208333333333333
 49
0.0
 49
0.0
 49
0.0
 49
0.0
 49
0.0208333333333333
 49
0.0
 49
0.0
 49
0.0
 49
0.0
 49
1.0
 49
0.0
 49
0.0
 49
0.0
 49
0.0
 49
1.0
175
     0
142
0.0208333333333333
142
0.0
142
0.0
142
0.0
142
0.0
142
0.0208333333333333
142
0.0
142
0.0
142
0.0
142
0.0
142
1.0
142
0.0
142
0.0
142
0.0
142
0.0
142
1.0
179
     0
144
0.0208333333333333
144
0.0
144
0.0
144
0.0
144
0.0
144
0.0208333333333333
144
0.0
144
0.0
144
0.0
144
0.0
144
1.0
144
0.0
144
0.0
144
0.0
144
0.0
144
1.0
147
0.0208333333333333
147
0.0
147
0.0
147
0.0
147
0.0
147
0.0208333333333333
147
0.0
147
0.0
147
0.0
147
0.0
147
1.0
147
0.0
147
0.0
147
0.0
147
0.0
147
1.0
  0
MLEADERSTYLE
  5
6F
102
{ACAD_REACTORS
330
6E
102
}
330
6E
100
AcDbMLeaderStyle
170
     2
171
     1
172
     0
 90
        2
 40
0.0
 41
0.0
173
     1
 91
-1056964608
340
63
 92
       -2
290
     1
 42
0.09
291
     1
 43
0.36
  3
Standard
 44
0.18
300

342
5D
174
     1
178
     6
175
     1
176
     0
 93
-1056964608
 45
0.18
292
     0
297
     0
 46
0.18
 94
-1056964608
 47
1.0
 49
1.0
140
1.0
293
     1
141
0.0
294
     1
177
     0
142
1.0
295
     0
296
     0
143
0.125
1001
ACAD_MLEADERVER
1070
     2
  0
MLINESTYLE
  5
68
102
{ACAD_REACTORS
330
67
102
}
330
67
100
AcDbMlineStyle
  2
STANDARD
 70
     0
  3

 62
   256
 51
90.0
 52
90.0
 71
     2
 49
0.5
 62
   256
  6
BYLAYER
 49
-0.5
 62
   256
  6
BYLAYER
  0
ACDBPLACEHOLDER
  5
F
102
{ACAD_REACTORS
330
E
102
}
330
E
  0
SCALE
  5
3B
102
{ACAD_REACTORS
330
3A
102
}
330
3A
100
AcDbScale
 70
     0
300
1:1
140
1.0
141
1.0
290
     1
  0
SCALE
  5
3C
102
{ACAD_REACTORS
330
3A
102
}
330
3A
100
AcDbScale
 70
     0
300
1:2
140
1.0
141
2.0
290
     0
  0
SCALE
  5
3D
102
{ACAD_REACTORS
330
3A
102
}
330
3A
100
AcDbScale
 70
     0
300
1:4
140
1.0
141
4.0
290
     0
  0
SCALE
  5
3E
102
{ACAD_REACTORS
330
3A
102
}
330
3A
100
AcDbScale
 70
     0
300
1:5
140
1.0
141
5.0
290
     0
  0
SCALE
  5
3F
102
{ACAD_REACTORS
330
3A
102
}
330
3A
100
AcDbScale
 70
     0
300
1:8
140
1.0
141
8.0
290
     0
  0
SCALE
  5
40
102
{ACAD_REACTORS
330
3A
102
}
330
3A
100
AcDbScale
 70
     0
300
1:10
140
1.0
141
10.0
290
     0
  0
SCALE
  5
41
102
{ACAD_REACTORS
330
3A
102
}
330
3A
100
AcDbScale
 70
     0
300
1:16
140
1.0
141
16.0
290
     0
  0
SCALE
  5
42
102
{ACAD_REACTORS
330
3A
102
}
330
3A
100
AcDbScale
 70
     0
300
1:20
140
1.0
141
20.0
290
     0
  0
SCALE
  5
43
102
{ACAD_REACTORS
330
3A
102
}
330
3A
100
AcDbScale
 70
     0
300
1:30
140
1.0
141
30.0
290
     0
  0
SCALE
  5
44
102
{ACAD_REACTORS
330
3A
102
}
330
3A
100
AcDbScale
 70
     0
300
1:40
140
1.0
141
40.0
290
     0
  0
SCALE
  5
45
102
{ACAD_REACTORS
330
3A
102
}
330
3A
100
AcDbScale
 70
     0
300
1:50
140
1.0
141
50.0
290
     0
  0
SCALE
  5
46
102
{ACAD_REACTORS
330
3A
102
}
330
3A
100
AcDbScale
 70
     0
300
1:100
140
1.0
141
100.0
290
     0
  0
SCALE
  5
47
102
{ACAD_REACTORS
330
3A
102
}
330
3A
100
AcDbScale
 70
     0
300
2:1
140
2.0
141
1.0
290
     0
  0
SCALE
  5
48
102
{ACAD_REACTORS
330
3A
102
}
330
3A
100
AcDbScale
 70
     0
300
4:1
140
4.0
141
1.0
290
     0
  0
SCALE
  5
49
102
{ACAD_REACTORS
330
3A
102
}
330
3A
100
AcDbScale
 70
     0
300
8:1
140
8.0
141
1.0
290
     0
  0
SCALE
  5
4A
102
{ACAD_REACTORS
330
3A
102
}
330
3A
100
AcDbScale
 70
     0
300
10:1
140
10.0
141
1.0
290
     0
  0
SCALE
  5
4B
102
{ACAD_REACTORS
330
3A
102
}
330
3A
100
AcDbScale
 70
     0
300
100:1
140
100.0
141
1.0
290
     0
  0
SCALE
  5
4C
102
{ACAD_REACTORS
330
3A
102
}
330
3A
100
AcDbScale
 70
     0
300
1/128" = 1'-0"
140
0.0078125
141
12.0
290
     0
  0
SCALE
  5
4D
102
{ACAD_REACTORS
330
3A
102
}
330
3A
100
AcDbScale
 70
     0
300
1/64" = 1'-0"
140
0.015625
141
12.0
290
     0
  0
SCALE
  5
4E
102
{ACAD_REACTORS
330
3A
102
}
330
3A
100
AcDbScale
 70
     0
300
1/32" = 1'-0"
140
0.03125
141
12.0
290
     0
  0
SCALE
  5
4F
102
{ACAD_REACTORS
330
3A
102
}
330
3A
100
AcDbScale
 70
     0
300
1/16" = 1'-0"
140
0.0625
141
12.0
290
     0
  0
SCALE
  5
50
102
{ACAD_REACTORS
330
3A
102
}
330
3A
100
AcDbScale
 70
     0
300
3/32" = 1'-0"
140
0.09375
141
12.0
290
     0
  0
SCALE
  5
51
102
{ACAD_REACTORS
330
3A
102
}
330
3A
100
AcDbScale
 70
     0
300
1/8" = 1'-0"
140
0.125
141
12.0
290
     0
  0
SCALE
  5
52
102
{ACAD_REACTORS
330
3A
102
}
330
3A
100
AcDbScale
 70
     0
300
3/16" = 1'-0"
140
0.1875
141
12.0
290
     0
  0
SCALE
  5
53
102
{ACAD_REACTORS
330
3A
102
}
330
3A
100
AcDbScale
 70
     0
300
1/4" = 1'-0"
140
0.25
141
12.0
290
     0
  0
SCALE
  5
54
102
{ACAD_REACTORS
330
3A
102
}
330
3A
100
AcDbScale
 70
     0
300
3/8" = 1'-0"
140
0.375
141
12.0
290
     0
  0
SCALE
  5
55
102
{ACAD_REACTORS
330
3A
102
}
330
3A
100
AcDbScale
 70
     0
300
1/2" = 1'-0"
140
0.5
141
12.0
290
     0
  0
SCALE
  5
56
102
{ACAD_REACTORS
330
3A
102
}
330
3A
100
AcDbScale
 70
     0
300
3/4" = 1'-0"
140
0.75
141
12.0
290
     0
  0
SCALE
  5
57
102
{ACAD_REACTORS
330
3A
102
}
330
3A
100
AcDbScale
 70
     0
300
1" = 1'-0"
140
1.0
141
12.0
290
     0
  0
SCALE
  5
58
102
{ACAD_REACTORS
330
3A
102
}
330
3A
100
AcDbScale
 70
     0
300
1-1/2" = 1'-0"
140
1.5
141
12.0
290
     0
  0
SCALE
  5
59
102
{ACAD_REACTORS
330
3A
102
}
330
3A
100
AcDbScale
 70
     0
300
3" = 1'-0"
140
3.0
141
12.0
290
     0
  0
SCALE
  5
5A
102
{ACAD_REACTORS
330
3A
102
}
330
3A
100
AcDbScale
 70
     0
300
6" = 1'-0"
140
6.0
141
12.0
290
     0
  0
SCALE
  5
5B
102
{ACAD_REACTORS
330
3A
102
}
330
3A
100
AcDbScale
 70
     0
300
1'-0" = 1'-0"
140
12.0
141
12.0
290
     0
  0
TABLESTYLE
  5
6D
102
{ACAD_XDICTIONARY
360
319
102
}
102
{ACAD_REACTORS
330
6C
102
}
330
6C
100
AcDbTableStyle
  3
Standard
 70
     0
 71
     0
 40
0.06
 41
0.06
280
     0
281
     0
  7
Standard
140
0.18
170
     2
 62
     0
 63
     7
283
     0
274
    -2
284
     1
 64
     0
275
    -2
285
     1
 65
     0
276
    -2
286
     1
 66
     0
277
    -2
287
     1
 67
     0
278
    -2
288
     1
 68
     0
279
    -2
289
     1
 69
     0
  7
Standard
140
0.25
170
     5
 62
     0
 63
     7
283
     0
274
    -2
284
     1
 64
     0
275
    -2
285
     1
 65
     0
276
    -2
286
     1
 66
     0
277
    -2
287
     1
 67
     0
278
    -2
288
     1
 68
     0
279
    -2
289
     1
 69
     0
  7
Standard
140
0.18
170
     5
 62
     0
 63
     7
283
     0
274
    -2
284
     1
 64
     0
275
    -2
285
     1
 65
     0
276
    -2
286
     1
 66
     0
277
    -2
287
     1
 67
     0
278
    -2
288
     1
 68
     0
279
    -2
289
     1
 69
     0
  0
VISUALSTYLE
  5
2F
102
{ACAD_REACTORS
330
29
102
}
330
29
100
AcDbVisualStyle
  2
2dWireframe
 70
     4
 71
     0
 72
     2
 73
     0
 90
        0
 40
-0.6
 41
-30.0
 62
     5
 63
     7
421
 16777215
 74
     1
 91
        4
 64
     7
 65
   257
 75
     1
175
     1
 42
1.0
 92
        0
 66
   257
 43
1.0
 76
     1
 77
     6
 78
     2
 67
     7
 79
     5
170
     0
171
     0
290
     0
174
     0
 93
        1
 44
0.0
173
     0
291
     0
 45
0.0
1001
ACAD
1000
AcDbSavedByObjectVersion
1070
     0
  0
VISUALSTYLE
  5
31
102
{ACAD_REACTORS
330
29
102
}
330
29
100
AcDbVisualStyle
  2
3D Hidden
 70
     6
 71
     1
 72
     2
 73
     2
 90
        0
 40
-0.6
 41
-30.0
 62
     5
 63
     7
421
 16777215
 74
     2
 91
        2
 64
     7
 65
   257
 75
     2
175
     1
 42
40.0
 92
        0
 66
   257
 43
1.0
 76
     1
 77
     6
 78
     2
 67
     7
 79
     3
170
     0
171
     0
290
     0
174
     0
 93
        1
 44
0.0
173
     0
291
     0
 45
0.0
1001
ACAD
1000
AcDbSavedByObjectVersion
1070
     0
  0
VISUALSTYLE
  5
30
102
{ACAD_REACTORS
330
29
102
}
330
29
100
AcDbVisualStyle
  2
3dWireframe
 70
     5
 71
     0
 72
     2
 73
     0
 90
        0
 40
-0.6
 41
-30.0
 62
     5
 63
     7
421
 16777215
 74
     1
 91
        4
 64
     7
 65
   257
 75
     1
175
     1
 42
1.0
 92
        0
 66
   257
 43
1.0
 76
     1
 77
     6
 78
     2
 67
     7
 79
     5
170
     0
171
     0
290
     0
174
     0
 93
        1
 44
0.0
173
     0
291
     0
 45
0.0
1001
ACAD
1000
AcDbSavedByObjectVersion
1070
     0
  0
VISUALSTYLE
  5
2E
102
{ACAD_REACTORS
330
29
102
}
330
29
100
AcDbVisualStyle
  2
Basic
 70
     7
 71
     1
 72
     0
 73
     1
 90
        0
 40
-0.6
 41
-30.0
 62
     5
 63
     7
421
 16777215
 74
     0
 91
        4
 64
     7
 65
   257
 75
     1
175
     1
 42
1.0
 92
        8
 66
     7
 43
1.0
 76
     1
 77
     6
 78
     2
 67
     7
 79
     5
170
     0
171
     0
290
     0
174
     0
 93
        1
 44
0.0
173
     0
291
     1
 45
0.0
1001
ACAD
1000
AcDbSavedByObjectVersion
1070
     0
  0
VISUALSTYLE
  5
35
102
{ACAD_REACTORS
330
29
102
}
330
29
100
AcDbVisualStyle
  2
Brighten
 70
    12
 71
     2
 72
     2
 73
     0
 90
        0
 40
-0.6
 41
-30.0
 62
     5
 63
     7
421
 16777215
 74
     1
 91
        4
 64
     7
 65
   257
 75
     1
175
     1
 42
1.0
 92
        8
 66
     7
 43
1.0
 76
     1
 77
     6
 78
     2
 67
     7
 79
     5
170
     0
171
     0
290
     0
174
     0
 93
        1
 44
50.0
173
     0
291
     1
 45
0.0
1001
ACAD
1000
AcDbSavedByObjectVersion
1070
     0
  0
VISUALSTYLE
  5
39
102
{ACAD_REACTORS
330
29
102
}
330
29
100
AcDbVisualStyle
  2
ColorChange
 70
    16
 71
     2
 72
     2
 73
     3
 90
        0
 40
-0.6
 41
-30.0
 62
     5
 63
     8
421
  8421504
 74
     1
 91
        4
 64
     7
 65
   257
 75
     1
175
     1
 42
1.0
 92
        8
 66
     8
424
  8421504
 43
1.0
 76
     1
 77
     6
 78
     2
 67
     7
 79
     5
170
     0
171
     0
290
     0
174
     0
 93
        1
 44
0.0
173
     0
291
     1
 45
0.0
1001
ACAD
1000
AcDbSavedByObjectVersion
1070
     0
  0
VISUALSTYLE
  5
32
102
{ACAD_REACTORS
330
29
102
}
330
29
100
AcDbVisualStyle
  2
Conceptual
 70
     9
 71
     3
 72
     2
 73
     0
 90
        0
 40
-0.6
 41
-30.0
 62
     5
 63
     7
421
 16777215
 74
     2
 91
        2
 64
     7
 65
   257
 75
     1
175
     1
 42
40.0
 92
        8
 66
     7
 43
1.0
 76
     1
 77
     6
 78
     2
 67
     7
 79
     3
170
     0
171
     0
290
     0
174
     0
 93
        1
 44
0.0
173
     0
291
     0
 45
0.0
1001
ACAD
1000
AcDbSavedByObjectVersion
1070
     0
  0
VISUALSTYLE
  5
34
102
{ACAD_REACTORS
330
29
102
}
330
29
100
AcDbVisualStyle
  2
Dim
 70
    11
 71
     2
 72
     2
 73
     0
 90
        0
 40
-0.6
 41
-30.0
 62
     5
 63
     7
421
 16777215
 74
     1
 91
        4
 64
     7
 65
   257
 75
     1
175
     1
 42
1.0
 92
        8
 66
     7
 43
1.0
 76
     1
 77
     6
 78
     2
 67
     7
 79
     5
170
     0
171
     0
290
     0
174
     0
 93
        1
 44
-50.0
173
     0
291
     1
 45
0.0
1001
ACAD
1000
AcDbSavedByObjectVersion
1070
     0
  0
VISUALSTYLE
  5
38
102
{ACAD_REACTORS
330
29
102
}
330
29
100
AcDbVisualStyle
  2
Facepattern
 70
    15
 71
     2
 72
     2
 73
     0
 90
        0
 40
-0.6
 41
-30.0
 62
     5
 63
     7
421
 16777215
 74
     1
 91
        4
 64
     7
 65
   257
 75
     1
175
     1
 42
1.0
 92
        8
 66
     7
 43
1.0
 76
     1
 77
     6
 78
     2
 67
     7
 79
     5
170
     0
171
     0
290
     0
174
     0
 93
        1
 44
0.0
173
     0
291
     1
 45
0.0
1001
ACAD
1000
AcDbSavedByObjectVersion
1070
     0
  0
VISUALSTYLE
  5
2A
102
{ACAD_REACTORS
330
29
102
}
330
29
100
AcDbVisualStyle
  2
Flat
 70
     0
 71
     2
 72
     1
 73
     1
 90
        2
 40
-0.6
 41
30.0
 62
     5
 63
     7
421
 16777215
 74
     0
 91
        4
 64
     7
 65
   257
 75
     1
175
     1
 42
1.0
 92
        8
 66
     7
 43
1.0
 76
     1
 77
     6
 78
     2
 67
     7
 79
     5
170
     0
171
     0
290
     0
174
     0
 93
       13
 44
0.0
173
     0
291
     1
 45
0.0
1001
ACAD
1000
AcDbSavedByObjectVersion
1070
     0
  0
VISUALSTYLE
  5
2B
102
{ACAD_REACTORS
330
29
102
}
330
29
100
AcDbVisualStyle
  2
FlatWithEdges
 70
     1
 71
     2
 72
     1
 73
     1
 90
        2
 40
-0.6
 41
30.0
 62
     5
 63
     7
421
 16777215
 74
     1
 91
        4
 64
     7
 65
   257
 75
     1
175
     1
 42
1.0
 92
        0
 66
   257
 43
1.0
 76
     1
 77
     6
 78
     2
 67
     7
 79
     5
170
     0
171
     0
290
     0
174
     0
 93
       13
 44
0.0
173
     0
291
     1
 45
0.0
1001
ACAD
1000
AcDbSavedByObjectVersion
1070
     0
  0
VISUALSTYLE
  5
2C
102
{ACAD_REACTORS
330
29
102
}
330
29
100
AcDbVisualStyle
  2
Gouraud
 70
     2
 71
     2
 72
     2
 73
     1
 90
        2
 40
-0.6
 41
30.0
 62
     5
 63
     7
421
 16777215
 74
     0
 91
        4
 64
     7
 65
   257
 75
     1
175
     1
 42
1.0
 92
        0
 66
     7
 43
1.0
 76
     1
 77
     6
 78
     2
 67
     7
 79
     5
170
     0
171
     0
290
     0
174
     0
 93
       13
 44
0.0
173
     0
291
     1
 45
0.0
1001
ACAD
1000
AcDbSavedByObjectVersion
1070
     0
  0
VISUALSTYLE
  5
2D
102
{ACAD_REACTORS
330
29
102
}
330
29
100
AcDbVisualStyle
  2
GouraudWithEdges
 70
     3
 71
     2
 72
     2
 73
     1
 90
        2
 40
-0.6
 41
30.0
 62
     5
 63
     7
421
 16777215
 74
     1
 91
        4
 64
     7
 65
   257
 75
     1
175
     1
 42
1.0
 92
        0
 66
   257
 43
1.0
 76
     1
 77
     6
 78
     2
 67
     7
 79
     5
170
     0
171
     0
290
     0
174
     0
 93
       13
 44
0.0
173
     0
291
     1
 45
0.0
1001
ACAD
1000
AcDbSavedByObjectVersion
1070
     0
  0
VISUALSTYLE
  5
37
102
{ACAD_REACTORS
330
29
102
}
330
29
100
AcDbVisualStyle
  2
Linepattern
 70
    14
 71
     2
 72
     2
 73
     0
 90
        0
 40
-0.6
 41
-30.0
 62
     5
 63
     7
421
 16777215
 74
     1
 91
        4
 64
     7
 65
   257
 75
     7
175
     7
 42
1.0
 92
        8
 66
     7
 43
1.0
 76
     1
 77
     6
 78
     2
 67
     7
 79
     5
170
     0
171
     0
290
     0
174
     0
 93
        1
 44
0.0
173
     0
291
     1
 45
0.0
1001
ACAD
1000
AcDbSavedByObjectVersion
1070
     0
  0
VISUALSTYLE
  5
33
102
{ACAD_REACTORS
330
29
102
}
330
29
100
AcDbVisualStyle
  2
Realistic
 70
     8
 71
     2
 72
     2
 73
     0
 90
        0
 40
-0.6
 41
-30.0
 62
     5
 63
     7
421
 16777215
 74
     1
 91
        0
 64
     7
 65
   257
 75
     1
175
     1
 42
1.0
 92
        8
 66
     8
424
  7895160
 43
1.0
 76
     1
 77
     6
 78
     2
 67
     7
 79
     5
170
     0
171
     0
290
     0
174
     0
 93
       13
 44
0.0
173
     0
291
     0
 45
0.0
1001
ACAD
1000
AcDbSavedByObjectVersion
1070
     0
  0
VISUALSTYLE
  5
36
102
{ACAD_REACTORS
330
29
102
}
330
29
100
AcDbVisualStyle
  2
Thicken
 70
    13
 71
     2
 72
     2
 73
     0
 90
        0
 40
-0.6
 41
-30.0
 62
     5
 63
     7
421
 16777215
 74
     1
 91
        4
 64
     7
 65
   257
 75
     1
175
     1
 42
1.0
 92
       12
 66
     7
 43
1.0
 76
     1
 77
     6
 78
     2
 67
     7
 79
     5
170
     0
171
     0
290
     0
174
     0
 93
        1
 44
0.0
173
     0
291
     1
 45
0.0
1001
ACAD
1000
AcDbSavedByObjectVersion
1070
     0
  0
DICTIONARYVAR
  5
317
102
{ACAD_REACTORS
330
313
102
}
330
313
100
DictionaryVariables
280
     0
  1
1:1
  0
DICTIONARYVAR
  5
315
102
{ACAD_REACTORS
330
313
102
}
330
313
100
DictionaryVariables
280
     0
  1
STANDARD
  0
DICTIONARYVAR
  5
314
102
{ACAD_REACTORS
330
313
102
}
330
313
100
DictionaryVariables
280
     0
  1
STANDARD
  0
DICTIONARYVAR
  5
318
102
{ACAD_REACTORS
330
313
102
}
330
313
100
DictionaryVariables
280
     0
  1
2
  0
DICTIONARYVAR
  5
316
102
{ACAD_REACTORS
330
313
102
}
330
313
100
DictionaryVariables
280
     0
  1
1
  0
DICTIONARY
  5
1A
330
19
100
AcDbDictionary
280
     1
281
     1
  3
ACAD_XREC_ROUNDTRIP
360
31D
  3
BUMPTILE
360
1C
  3
DIFFUSETILE
360
1B
  3
OPACITYTILE
360
1F
  3
REFLECTIONTILE
360
1E
  3
REFRACTIONTILE
360
20
  3
SPECULARTILE
360
1D
  0
DICTIONARY
  5
12
330
11
100
AcDbDictionary
280
     1
281
     1
  3
ACAD_XREC_ROUNDTRIP
360
31C
  3
BUMPTILE
360
14
  3
DIFFUSETILE
360
13
  3
OPACITYTILE
360
17
  3
REFLECTIONTILE
360
16
  3
REFRACTIONTILE
360
18
  3
SPECULARTILE
360
15
  0
DICTIONARY
  5
22
330
21
100
AcDbDictionary
280
     1
281
     1
  3
ACAD_XREC_ROUNDTRIP
360
31E
  3
BUMPTILE
360
24
  3
DIFFUSETILE
360
23
  3
OPACITYTILE
360
27
  3
REFLECTIONTILE
360
26
  3
REFRACTIONTILE
360
28
  3
SPECULARTILE
360
25
  0
DICTIONARY
  5
319
330
6D
100
AcDbDictionary
280
     1
281
     1
  3
ACAD_ROUNDTRIP_2008_TABLESTYLE_CELLSTYLEMAP
360
31A
  3
ACAD_XREC_ROUNDTRIP
360
31F
  0
XRECORD
  5
31D
102
{ACAD_REACTORS
330
1A
102
}
330
1A
100
AcDbXrecord
280
     1
102
MATERIAL
148
0.0
149
0.0
149
0.0
 93
        0
 94
      127
282
     0
 72
     0
 77
     0
171
     0
175
     0
179
     0
273
     0
  0
XRECORD
  5
1C
102
{ACAD_REACTORS
330
1A
102
}
330
1A
100
AcDbXrecord
280
     1
270
     1
271
     1
  0
XRECORD
  5
1B
102
{ACAD_REACTORS
330
1A
102
}
330
1A
100
AcDbXrecord
280
     1
270
     1
271
     1
  0
XRECORD
  5
1F
102
{ACAD_REACTORS
330
1A
102
}
330
1A
100
AcDbXrecord
280
     1
270
     1
271
     1
  0
XRECORD
  5
1E
102
{ACAD_REACTORS
330
1A
102
}
330
1A
100
AcDbXrecord
280
     1
270
     1
271
     1
  0
XRECORD
  5
20
102
{ACAD_REACTORS
330
1A
102
}
330
1A
100
AcDbXrecord
280
     1
270
     1
271
     1
  0
XRECORD
  5
1D
102
{ACAD_REACTORS
330
1A
102
}
330
1A
100
AcDbXrecord
280
     1
270
     1
271
     1
  0
XRECORD
  5
31C
102
{ACAD_REACTORS
330
12
102
}
330
12
100
AcDbXrecord
280
     1
102
MATERIAL
148
0.0
149
0.0
149
0.0
 93
        0
 94
      127
282
     0
 72
     0
 77
     0
171
     0
175
     0
179
     0
273
     0
  0
XRECORD
  5
14
102
{ACAD_REACTORS
330
12
102
}
330
12
100
AcDbXrecord
280
     1
270
     1
271
     1
  0
XRECORD
  5
13
102
{ACAD_REACTORS
330
12
102
}
330
12
100
AcDbXrecord
280
     1
270
     1
271
     1
  0
XRECORD
  5
17
102
{ACAD_REACTORS
330
12
102
}
330
12
100
AcDbXrecord
280
     1
270
     1
271
     1
  0
XRECORD
  5
16
102
{ACAD_REACTORS
330
12
102
}
330
12
100
AcDbXrecord
280
     1
270
     1
271
     1
  0
XRECORD
  5
18
102
{ACAD_REACTORS
330
12
102
}
330
12
100
AcDbXrecord
280
     1
270
     1
271
     1
  0
XRECORD
  5
15
102
{ACAD_REACTORS
330
12
102
}
330
12
100
AcDbXrecord
280
     1
270
     1
271
     1
  0
XRECORD
  5
31E
102
{ACAD_REACTORS
330
22
102
}
330
22
100
AcDbXrecord
280
     1
102
MATERIAL
148
0.0
149
0.0
149
0.0
 93
        0
 94
      127
282
     0
 72
     0
 77
     0
171
     0
175
     0
179
     0
273
     0
  0
XRECORD
  5
24
102
{ACAD_REACTORS
330
22
102
}
330
22
100
AcDbXrecord
280
     1
270
     1
271
     1
  0
XRECORD
  5
23
102
{ACAD_REACTORS
330
22
102
}
330
22
100
AcDbXrecord
280
     1
270
     1
271
     1
  0
XRECORD
  5
27
102
{ACAD_REACTORS
330
22
102
}
330
22
100
AcDbXrecord
280
     1
270
     1
271
     1
  0
XRECORD
  5
26
102
{ACAD_REACTORS
330
22
102
}
330
22
100
AcDbXrecord
280
     1
270
     1
271
     1
  0
XRECORD
  5
28
102
{ACAD_REACTORS
330
22
102
}
330
22
100
AcDbXrecord
280
     1
270
     1
271
     1
  0
XRECORD
  5
25
102
{ACAD_REACTORS
330
22
102
}
330
22
100
AcDbXrecord
280
     1
270
     1
271
     1
  0
CELLSTYLEMAP
  5
31A
102
{ACAD_REACTORS
330
319
102
}
330
319
100
AcDbCellStyleMap
 90
        3
300
CELLSTYLE
  1
TABLEFORMAT_BEGIN
 90
        5
170
     1
 91
        0
 92
    32768
 62
   257
 93
        1
300
CONTENTFORMAT
  1
CONTENTFORMAT_BEGIN
 90
        0
 91
        0
 92
      512
 93
        0
300

 40
0.0
140
1.0
 94
        5
 62
     0
340
5D
144
0.25
309
CONTENTFORMAT_END
171
     0
 94
        0
309
TABLEFORMAT_END
  1
CELLSTYLE_BEGIN
 90
        1
 91
        1
300
_TITLE
309
CELLSTYLE_END
300
CELLSTYLE
  1
TABLEFORMAT_BEGIN
 90
        5
170
     1
 91
        0
 92
        0
 62
   257
 93
        1
300
CONTENTFORMAT
  1
CONTENTFORMAT_BEGIN
 90
        0
 91
        0
 92
      512
 93
        0
300

 40
0.0
140
1.0
 94
        5
 62
     0
340
5D
144
0.18
309
CONTENTFORMAT_END
171
     0
 94
        0
309
TABLEFORMAT_END
  1
CELLSTYLE_BEGIN
 90
        2
 91
        1
300
_HEADER
309
CELLSTYLE_END
300
CELLSTYLE
  1
TABLEFORMAT_BEGIN
 90
        5
170
     1
 91
        0
 92
        0
 62
   257
 93
        1
300
CONTENTFORMAT
  1
CONTENTFORMAT_BEGIN
 90
        0
 91
        0
 92
      512
 93
        0
300

 40
0.0
140
1.0
 94
        2
 62
     0
340
5D
144
0.18
309
CONTENTFORMAT_END
171
     0
 94
        0
309
TABLEFORMAT_END
  1
CELLSTYLE_BEGIN
 90
        3
 91
        2
300
_DATA
309
CELLSTYLE_END
  0
XRECORD
  5
31F
102
{ACAD_REACTORS
330
319
102
}
330
319
100
AcDbXrecord
280
     1
102
ACAD_ROUNDTRIP_PRE2007_TABLESTYLE
 90
      512
 91
        0
  1

 92
      512
 93
        0
  2

 94
      512
 95
        0
  3

  0
ENDSEC
  0
EOF
