  0
SECTION
  2
HEADER
  9
$ACADVER
  1
AC1018
  9
$ACADMAINTVER
 70
   104
  9
$DWGCODEPAGE
  3
ANSI_1252
  9
$LASTSAVEDBY
  1
basyouni
  9
$CUSTOMPROPERTYTAG
  1
AmdtFileType
  9
$CUSTOMPROPERTY
  1
84
  9
$INSBASE
 10
0.0
 20
0.0
 30
0.0
  9
$EXTMIN
 10
78.54483156988051
 20
77.11303501177207
 30
0.0
  9
$EXTMAX
 10
972.5652412593486
 20
415.8660454055227
 30
0.0
  9
$LIMMIN
 10
0.0
 20
0.0
  9
$LIMMAX
 10
1000.0
 20
500.0
  9
$ORTHOMODE
 70
     1
  9
$REGENMODE
 70
     1
  9
$FILLMODE
 70
     1
  9
$QTEXTMODE
 70
     0
  9
$MIRRTEXT
 70
     1
  9
$LTSCALE
 40
1.0
  9
$ATTMODE
 70
     1
  9
$TEXTSIZE
 40
3.5
  9
$TRACEWID
 40
1.0
  9
$TEXTSTYLE
  7
Stil1
  9
$CLAYER
  8
0
  9
$CELTYPE
  6
BYLAYER
  9
$CECOLOR
 62
   256
  9
$CELTSCALE
 40
10.0
  9
$DISPSILH
 70
     0
  9
$DIMSCALE
 40
1.0
  9
$DIMASZ
 40
7.0
  9
$DIMEXO
 40
0.0
  9
$DIMDLI
 40
7.0
  9
$DIMRND
 40
0.0
  9
$DIMDLE
 40
0.0
  9
$DIMEXE
 40
1.25
  9
$DIMTP
 40
0.0
  9
$DIMTM
 40
0.0
  9
$DIMTXT
 40
10.0
  9
$DIMCEN
 40
0.0
  9
$DIMTSZ
 40
0.0
  9
$DIMTOL
 70
     0
  9
$DIMLIM
 70
     0
  9
$DIMTIH
 70
     0
  9
$DIMTOH
 70
     0
  9
$DIMSE1
 70
     0
  9
$DIMSE2
 70
     0
  9
$DIMTAD
 70
     1
  9
$DIMZIN
 70
     8
  9
$DIMBLK
  1

  9
$DIMASO
 70
     1
  9
$DIMSHO
 70
     1
  9
$DIMPOST
  1

  9
$DIMAPOST
  1

  9
$DIMALT
 70
     0
  9
$DIMALTD
 70
     2
  9
$DIMALTF
 40
25.4
  9
$DIMLFAC
 40
0.5
  9
$DIMTOFL
 70
     1
  9
$DIMTVP
 40
0.0
  9
$DIMTIX
 70
     0
  9
$DIMSOXD
 70
     0
  9
$DIMSAH
 70
     0
  9
$DIMBLK1
  1

  9
$DIMBLK2
  1

  9
$DIMSTYLE
  2
ISO-25
  9
$DIMCLRD
 70
   256
  9
$DIMCLRE
 70
   256
  9
$DIMCLRT
 70
   256
  9
$DIMTFAC
 40
1.0
  9
$DIMGAP
 40
4.0
  9
$DIMJUST
 70
     0
  9
$DIMSD1
 70
     0
  9
$DIMSD2
 70
     0
  9
$DIMTOLJ
 70
     1
  9
$DIMTZIN
 70
     0
  9
$DIMALTZ
 70
     0
  9
$DIMALTTZ
 70
     0
  9
$DIMUPT
 70
     1
  9
$DIMDEC
 70
     4
  9
$DIMTDEC
 70
     4
  9
$DIMALTU
 70
     2
  9
$DIMALTTD
 70
     2
  9
$DIMTXSTY
  7
STANDARD
  9
$DIMAUNIT
 70
     0
  9
$DIMADEC
 70
     1
  9
$DIMALTRND
 40
0.0
  9
$DIMAZIN
 70
     0
  9
$DIMDSEP
 70
    46
  9
$DIMATFIT
 70
     0
  9
$DIMFRAC
 70
     0
  9
$DIMLDRBLK
  1

  9
$DIMLUNIT
 70
     2
  9
$DIMLWD
 70
    -2
  9
$DIMLWE
 70
    -2
  9
$DIMTMOVE
 70
     0
  9
$LUNITS
 70
     2
  9
$LUPREC
 70
     4
  9
$SKETCHINC
 40
1.0
  9
$FILLETRAD
 40
0.0
  9
$AUNITS
 70
     0
  9
$AUPREC
 70
     0
  9
$MENU
  1
.
  9
$ELEVATION
 40
0.0
  9
$PELEVATION
 40
0.0
  9
$THICKNESS
 40
0.0
  9
$LIMCHECK
 70
     0
  9
$CHAMFERA
 40
2.0
  9
$CHAMFERB
 40
2.0
  9
$CHAMFERC
 40
0.0
  9
$CHAMFERD
 40
0.0
  9
$SKPOLY
 70
     0
  9
$TDCREATE
 40
2450848.795139884
  9
$TDUCREATE
 40
2450848.711806551
  9
$TDUPDATE
 40
2454641.688172396
  9
$TDUUPDATE
 40
2454641.604839062
  9
$TDINDWG
 40
2.4066171991
  9
$TDUSRTIMER
 40
2.4066171991
  9
$USRTIMER
 70
     1
  9
$ANGBASE
 50
0.0
  9
$ANGDIR
 70
     0
  9
$PDMODE
 70
     0
  9
$PDSIZE
 40
0.0
  9
$PLINEWID
 40
0.5
  9
$SPLFRAME
 70
     0
  9
$SPLINETYPE
 70
     6
  9
$SPLINESEGS
 70
     8
  9
$HANDSEED
  5
4510
  9
$SURFTAB1
 70
     6
  9
$SURFTAB2
 70
     6
  9
$SURFTYPE
 70
     6
  9
$SURFU
 70
     6
  9
$SURFV
 70
     6
  9
$UCSBASE
  2

  9
$UCSNAME
  2

  9
$UCSORG
 10
0.0
 20
0.0
 30
0.0
  9
$UCSXDIR
 10
1.0
 20
0.0
 30
0.0
  9
$UCSYDIR
 10
0.0
 20
1.0
 30
0.0
  9
$UCSORTHOREF
  2

  9
$UCSORTHOVIEW
 70
     0
  9
$UCSORGTOP
 10
0.0
 20
0.0
 30
0.0
  9
$UCSORGBOTTOM
 10
0.0
 20
0.0
 30
0.0
  9
$UCSORGLEFT
 10
0.0
 20
0.0
 30
0.0
  9
$UCSORGRIGHT
 10
0.0
 20
0.0
 30
0.0
  9
$UCSORGFRONT
 10
0.0
 20
0.0
 30
0.0
  9
$UCSORGBACK
 10
0.0
 20
0.0
 30
0.0
  9
$PUCSBASE
  2

  9
$PUCSNAME
  2

  9
$PUCSORG
 10
0.0
 20
0.0
 30
0.0
  9
$PUCSXDIR
 10
1.0
 20
0.0
 30
0.0
  9
$PUCSYDIR
 10
0.0
 20
1.0
 30
0.0
  9
$PUCSORTHOREF
  2

  9
$PUCSORTHOVIEW
 70
     0
  9
$PUCSORGTOP
 10
0.0
 20
0.0
 30
0.0
  9
$PUCSORGBOTTOM
 10
0.0
 20
0.0
 30
0.0
  9
$PUCSORGLEFT
 10
0.0
 20
0.0
 30
0.0
  9
$PUCSORGRIGHT
 10
0.0
 20
0.0
 30
0.0
  9
$PUCSORGFRONT
 10
0.0
 20
0.0
 30
0.0
  9
$PUCSORGBACK
 10
0.0
 20
0.0
 30
0.0
  9
$USERI1
 70
     0
  9
$USERI2
 70
     0
  9
$USERI3
 70
     0
  9
$USERI4
 70
     0
  9
$USERI5
 70
     0
  9
$USERR1
 40
0.0
  9
$USERR2
 40
0.0
  9
$USERR3
 40
0.0
  9
$USERR4
 40
0.0
  9
$USERR5
 40
0.0
  9
$WORLDVIEW
 70
     1
  9
$SHADEDGE
 70
     3
  9
$SHADEDIF
 70
    70
  9
$TILEMODE
 70
     1
  9
$MAXACTVP
 70
    16
  9
$PINSBASE
 10
0.0
 20
0.0
 30
0.0
  9
$PLIMCHECK
 70
     0
  9
$PEXTMIN
 10
1.000000000000000E+20
 20
1.000000000000000E+20
 30
1.000000000000000E+20
  9
$PEXTMAX
 10
-1.000000000000000E+20
 20
-1.000000000000000E+20
 30
-1.000000000000000E+20
  9
$PLIMMIN
 10
0.0
 20
0.0
  9
$PLIMMAX
 10
420.0
 20
297.0
  9
$UNITMODE
 70
     0
  9
$VISRETAIN
 70
     0
  9
$PLINEGEN
 70
     0
  9
$PSLTSCALE
 70
     0
  9
$TREEDEPTH
 70
  3020
  9
$CMLSTYLE
  2
STANDARD
  9
$CMLJUST
 70
     0
  9
$CMLSCALE
 40
1.0
  9
$PROXYGRAPHICS
 70
     1
  9
$MEASUREMENT
 70
     0
  9
$CELWEIGHT
370
    -1
  9
$ENDCAPS
280
     0
  9
$JOINSTYLE
280
     0
  9
$LWDISPLAY
290
     0
  9
$INSUNITS
 70
     0
  9
$HYPERLINKBASE
  1

  9
$STYLESHEET
  1
Test.ctb
  9
$XEDIT
290
     1
  9
$CEPSNTYPE
380
     0
  9
$PSTYLEMODE
290
     1
  9
$FINGERPRINTGUID
  2
{785BA218-F8F7-11D4-B795-0010B575C074}
  9
$VERSIONGUID
  2
{1B2DCB4C-A644-4491-AE00-A2154ABD8B89}
  9
$EXTNAMES
290
     1
  9
$PSVPSCALE
 40
0.0
  9
$OLESTARTUP
290
     0
  9
$SORTENTS
280
    96
  9
$INDEXCTL
280
     0
  9
$HIDETEXT
280
     0
  9
$XCLIPFRAME
290
     0
  9
$HALOGAP
280
     0
  9
$OBSCOLOR
 70
   257
  9
$OBSLTYPE
280
     0
  9
$INTERSECTIONDISPLAY
280
     0
  9
$INTERSECTIONCOLOR
 70
   257
  9
$DIMASSOC
280
     1
  9
$PROJECTNAME
  1

  0
ENDSEC
  0
SECTION
  2
CLASSES
  0
CLASS
  1
IDBUFFER
  2
AcDbIdBuffer
  3
ObjectDBX Classes
 90
        0
 91
        5
280
     0
281
     0
  0
CLASS
  1
DICTIONARYVAR
  2
AcDbDictionaryVar
  3
ObjectDBX Classes
 90
        0
 91
        3
280
     0
281
     0
  0
CLASS
  1
ACMESTATEMGR
  2
AcMeStateMgr
  3
AcMeServices
 90
        0
 91
        1
280
     0
281
     0
  0
CLASS
  1
ACMESCOPE
  2
AcMeScope
  3
AcMeServices
 90
        0
 91
        1
280
     0
281
     0
  0
CLASS
  1
ACMECOMMANDHISTORY
  2
AcMeCommandHistory
  3
AcMeServices
 90
        0
 91
        1
280
     0
281
     0
  0
CLASS
  1
ACRFINSADJUSTERMGR
  2
AcRfInsAdjusterMgr
  3
AcMeServices
 90
        0
 91
        1
280
     0
281
     0
  0
CLASS
  1
ACMEDRAWINGMAN
  2
AcMeDrawingMan
  3
AcMeServices
 90
        0
 91
        1
280
     0
281
     0
  0
CLASS
  1
AMATTR
  2
AcMeAttribute
  3
AcMeServices
 90
        0
 91
        0
280
     0
281
     0
  0
CLASS
  1
ACMEBOMCOLUMN
  2
AcMeBOMColumn
  3
AcMeServices
 90
        0
 91
        0
280
     0
281
     0
  0
CLASS
  1
ACMEBOMCONF
  2
AcMeBOMConf
  3
AcMeServices
 90
        0
 91
        0
280
     0
281
     0
  0
CLASS
  1
ACMEBOMTABLE
  2
AcMeBOMTable
  3
AcMeServices
 90
        0
 91
        0
280
     0
281
     0
  0
CLASS
  1
ACMEBOMENTRY
  2
AcMeBOMEntry
  3
AcMeServices
 90
        0
 91
        0
280
     0
281
     0
  0
CLASS
  1
ACMEVIEW
  2
AcMeView
  3
AcMeServices
 90
        0
 91
        0
280
     0
281
     0
  0
CLASS
  1
ACIMSYSVARMAN
  2
AcImSysVarManager
  3
AcMeServices
 90
        0
 91
        5
280
     0
281
     0
  0
CLASS
  1
ACIMINTSYSVAR
  2
AcImIntSysVar
  3
AcMeServices
 90
        0
 91
       28
280
     0
281
     0
  0
CLASS
  1
ACIMSTRSYSVAR
  2
AcImStrSysVar
  3
AcMeServices
 90
        0
 91
        5
280
     0
281
     0
  0
CLASS
  1
ACMSTANDARDJIS
  2
AcmStandardJIS
  3
"Amdt_StdImp|Product Description: AutoCAD Mechanical|Company: Autodesk"
 90
        0
 91
        1
280
     0
281
     0
  0
CLASS
  1
ACMSTANDARDANSI
  2
AcmStandardANSI
  3
"Amdt_StdImp|Product Description: AutoCAD Mechanical|Company: Autodesk"
 90
        0
 91
        1
280
     0
281
     0
  0
CLASS
  1
ACMSTANDARDBSI
  2
AcmStandardBSI
  3
"Amdt_StdImp|Product Description: AutoCAD Mechanical|Company: Autodesk"
 90
        0
 91
        1
280
     0
281
     0
  0
CLASS
  1
ACMSTANDARDDIN
  2
AcmStandardDIN
  3
"Amdt_StdImp|Product Description: AutoCAD Mechanical|Company: Autodesk"
 90
        0
 91
        1
280
     0
281
     0
  0
CLASS
  1
ACMSTANDARDISO
  2
AcmStandardISO
  3
"Amdt_StdImp|Product Description: AutoCAD Mechanical|Company: Autodesk"
 90
        0
 91
        1
280
     0
281
     0
  0
CLASS
  1
LAYER_INDEX
  2
AcDbLayerIndex
  3
ObjectDBX Classes
 90
        0
 91
        1
280
     0
281
     0
  0
CLASS
  1
ACDBDICTIONARYWDFLT
  2
AcDbDictionaryWithDefault
  3
ObjectDBX Classes
 90
        0
 91
        1
280
     0
281
     0
  0
CLASS
  1
ACME_DOCUMENT
  2
AcMeDbDoc
  3
AcMeServices
 90
        0
 91
        2
280
     0
281
     0
  0
CLASS
  1
AMGSETTINGSOBJ
  2
AmgSettingsObj
  3
"AcadM|Product Description: AutoCAD Mechanical|Company: Autodesk"
 90
        0
 91
        3
280
     0
281
     0
  0
CLASS
  1
ACIMREALSYSVAR
  2
AcImRealSysVar
  3
AcMeServices
 90
        0
 91
        3
280
     0
281
     0
  0
CLASS
  1
ACDBENTITYCACHE
  2
AcMeEntityCache
  3
AcMeServices
 90
        0
 91
        1
280
     0
281
     0
  0
CLASS
  1
GSMANAGER
  2
AcMeGSManager
  3
AcMeServices
 90
        0
 91
        1
280
     0
281
     0
  0
CLASS
  1
AMDTINTERNALREACTOR
  2
AmdtInternalReactor
  3
AcMeServices
 90
        0
 91
        2
280
     0
281
     0
  0
CLASS
  1
ACME_DATABASE
  2
AcMeDbDatabase
  3
AcMeServices
 90
        0
 91
        1
280
     0
281
     0
  0
CLASS
  1
ACMDATADICTIONARY
  2
AcmDataDictionary
  3
"AcmSymBB|Product Description: AutoCAD Mechanical|Company: Autodesk"
 90
        0
 91
        1
280
     0
281
     0
  0
CLASS
  1
ACMDATAENTRYBLOCK
  2
AcmDataEntryBlock
  3
"AcmSymBB|Product Description: AutoCAD Mechanical|Company: Autodesk"
 90
        0
 91
        1
280
     0
281
     0
  0
CLASS
  1
ACMSURFSTANDARDJIS
  2
AcmSurfTextStdJIS
  3
"Amdt_StdImp|Product Description: AutoCAD Mechanical|Company: Autodesk"
 90
        0
 91
        2
280
     0
281
     0
  0
CLASS
  1
ACMFCFSTANDARDJIS
  2
AcmFCFStdJIS
  3
"Amdt_StdImp|Product Description: AutoCAD Mechanical|Company: Autodesk"
 90
        0
 91
        2
280
     0
281
     0
  0
CLASS
  1
ACMWELDSTANDARDJIS
  2
AcmWeldingStdJIS
  3
"Amdt_StdImp|Product Description: AutoCAD Mechanical|Company: Autodesk"
 90
        0
 91
        2
280
     0
281
     0
  0
CLASS
  1
ACMIDSTANDARDJIS
  2
AcmIdStdJIS
  3
"Amdt_StdImp|Product Description: AutoCAD Mechanical|Company: Autodesk"
 90
        0
 91
        2
280
     0
281
     0
  0
CLASS
  1
ACMDATUMSTANDARDJIS
  2
AcmDatumStdJIS
  3
"Amdt_StdImp|Product Description: AutoCAD Mechanical|Company: Autodesk"
 90
        0
 91
        2
280
     0
281
     0
  0
CLASS
  1
ACMBOMSTANDARDJIS
  2
AcmBOMStdJIS
  3
"Amdt_StdImp|Product Description: AutoCAD Mechanical|Company: Autodesk"
 90
        0
 91
        2
280
     0
281
     0
  0
CLASS
  1
AMGOBJPROPCFG
  2
AmgObjPropCfg
  3
"AmgLay|Product Description: AutoCAD Mechanical|Company: Autodesk"
 90
        1
 91
        1
280
     0
281
     0
  0
CLASS
  1
ACMSURFSTANDARDANSI
  2
AcmSurfTextStdANSI
  3
"Amdt_StdImp|Product Description: AutoCAD Mechanical|Company: Autodesk"
 90
        0
 91
        2
280
     0
281
     0
  0
CLASS
  1
ACMFCFSTANDARDANSI
  2
AcmFCFStdANSI
  3
"Amdt_StdImp|Product Description: AutoCAD Mechanical|Company: Autodesk"
 90
        0
 91
        2
280
     0
281
     0
  0
CLASS
  1
ACMWELDSTANDARDANSI
  2
AcmWeldingStdANSI
  3
"Amdt_StdImp|Product Description: AutoCAD Mechanical|Company: Autodesk"
 90
        0
 91
        2
280
     0
281
     0
  0
CLASS
  1
ACMIDSTANDARDANSI
  2
AcmIdStdANSI
  3
"Amdt_StdImp|Product Description: AutoCAD Mechanical|Company: Autodesk"
 90
        0
 91
        2
280
     0
281
     0
  0
CLASS
  1
ACMDATUMSTANDARDANSI
  2
AcmDatumStdANSI
  3
"Amdt_StdImp|Product Description: AutoCAD Mechanical|Company: Autodesk"
 90
        0
 91
        2
280
     0
281
     0
  0
CLASS
  1
ACMBOMSTANDARDANSI
  2
AcmBOMStdANSI
  3
"Amdt_StdImp|Product Description: AutoCAD Mechanical|Company: Autodesk"
 90
        0
 91
        2
280
     0
281
     0
  0
CLASS
  1
ACMSURFSTANDARDBSI
  2
AcmSurfTextStdBSI
  3
"Amdt_StdImp|Product Description: AutoCAD Mechanical|Company: Autodesk"
 90
        0
 91
        2
280
     0
281
     0
  0
CLASS
  1
ACMFCFSTANDARDBSI
  2
AcmFCFStdBSI
  3
"Amdt_StdImp|Product Description: AutoCAD Mechanical|Company: Autodesk"
 90
        0
 91
        2
280
     0
281
     0
  0
CLASS
  1
ACMWELDSTANDARDBSI
  2
AcmWeldingStdBSI
  3
"Amdt_StdImp|Product Description: AutoCAD Mechanical|Company: Autodesk"
 90
        0
 91
        2
280
     0
281
     0
  0
CLASS
  1
ACMIDSTANDARDBSI
  2
AcmIdStdBSI
  3
"Amdt_StdImp|Product Description: AutoCAD Mechanical|Company: Autodesk"
 90
        0
 91
        2
280
     0
281
     0
  0
CLASS
  1
ACMDATUMSTANDARDBSI
  2
AcmDatumStdBSI
  3
"Amdt_StdImp|Product Description: AutoCAD Mechanical|Company: Autodesk"
 90
        0
 91
        2
280
     0
281
     0
  0
CLASS
  1
ACMBOMSTANDARDBSI
  2
AcmBOMStdBSI
  3
"Amdt_StdImp|Product Description: AutoCAD Mechanical|Company: Autodesk"
 90
        0
 91
        2
280
     0
281
     0
  0
CLASS
  1
AMDTEDGESTANDARDDIN
  2
AmdtEdgeStdDIN
  3
"Amdt_StdImp|Product Description: AutoCAD Mechanical|Company: Autodesk"
 90
        0
 91
        2
280
     0
281
     0
  0
CLASS
  1
ACMSURFSTANDARDDIN
  2
AcmSurfTextStdDIN
  3
"Amdt_StdImp|Product Description: AutoCAD Mechanical|Company: Autodesk"
 90
        0
 91
        2
280
     0
281
     0
  0
CLASS
  1
ACMFCFSTANDARDDIN
  2
AcmFCFStdDIN
  3
"Amdt_StdImp|Product Description: AutoCAD Mechanical|Company: Autodesk"
 90
        0
 91
        2
280
     0
281
     0
  0
CLASS
  1
ACMWELDSTANDARDDIN
  2
AcmWeldingStdDIN
  3
"Amdt_StdImp|Product Description: AutoCAD Mechanical|Company: Autodesk"
 90
        0
 91
        2
280
     0
281
     0
  0
CLASS
  1
ACMIDSTANDARDDIN
  2
AcmIdStdDIN
  3
"Amdt_StdImp|Product Description: AutoCAD Mechanical|Company: Autodesk"
 90
        0
 91
        2
280
     0
281
     0
  0
CLASS
  1
ACMDATUMSTANDARDDIN
  2
AcmDatumStdDIN
  3
"Amdt_StdImp|Product Description: AutoCAD Mechanical|Company: Autodesk"
 90
        0
 91
        2
280
     0
281
     0
  0
CLASS
  1
ACMBOMSTANDARDDIN
  2
AcmBOMStdDIN
  3
"Amdt_StdImp|Product Description: AutoCAD Mechanical|Company: Autodesk"
 90
        0
 91
        2
280
     0
281
     0
  0
CLASS
  1
AMDTEDGESTANDARDISO
  2
AmdtEdgeStdISO
  3
"Amdt_StdImp|Product Description: AutoCAD Mechanical|Company: Autodesk"
 90
        0
 91
        2
280
     0
281
     0
  0
CLASS
  1
ACMSURFSTANDARDISO
  2
AcmSurfTextStdISO
  3
"Amdt_StdImp|Product Description: AutoCAD Mechanical|Company: Autodesk"
 90
        0
 91
        2
280
     0
281
     0
  0
CLASS
  1
ACMFCFSTANDARDISO
  2
AcmFCFStdISO
  3
"Amdt_StdImp|Product Description: AutoCAD Mechanical|Company: Autodesk"
 90
        0
 91
        2
280
     0
281
     0
  0
CLASS
  1
ACMWELDSTANDARDISO
  2
AcmWeldingStdISO
  3
"Amdt_StdImp|Product Description: AutoCAD Mechanical|Company: Autodesk"
 90
        0
 91
        2
280
     0
281
     0
  0
CLASS
  1
ACMIDSTANDARDISO
  2
AcmIdStdISO
  3
"Amdt_StdImp|Product Description: AutoCAD Mechanical|Company: Autodesk"
 90
        0
 91
        2
280
     0
281
     0
  0
CLASS
  1
ACMDATUMSTANDARDISO
  2
AcmDatumStdISO
  3
"Amdt_StdImp|Product Description: AutoCAD Mechanical|Company: Autodesk"
 90
        0
 91
        2
280
     0
281
     0
  0
CLASS
  1
ACMBOMSTANDARDISO
  2
AcmBOMStdISO
  3
"Amdt_StdImp|Product Description: AutoCAD Mechanical|Company: Autodesk"
 90
        0
 91
        2
280
     0
281
     0
  0
CLASS
  1
ACAMGFILTERDAT
  2
AcAmgFilterDat
  3
"AcadM|Product Description: AutoCAD Mechanical|Company: Autodesk"
 90
        0
 91
        5
280
     0
281
     0
  0
CLASS
  1
ACMDIMBREAKPERSREACTOR
  2
AcmDimBreakPersReactor
  3
amgDimApp().moduleName()
 90
     3071
 91
        0
280
     0
281
     0
  0
CLASS
  1
AMDTNOTE
  2
AmdtNote
  3
"AcmSymBB|Product Description: AutoCAD Mechanical|Company: Autodesk"
 90
     3071
 91
        0
280
     0
281
     1
  0
CLASS
  1
MATERIAL
  2
AcDbMaterial
  3
ObjectDBX Classes
 90
     1153
 91
        3
280
     0
281
     0
  0
CLASS
  1
VISUALSTYLE
  2
AcDbVisualStyle
  3
ObjectDBX Classes
 90
     4095
 91
       16
280
     0
281
     0
  0
CLASS
  1
TABLESTYLE
  2
AcDbTableStyle
  3
ObjectDBX Classes
 90
     4095
 91
        1
280
     0
281
     0
  0
CLASS
  1
ACGREFMASTER
  2
AcGrefMaster
  3
AcAttribServices
 90
        0
 91
        1
280
     0
281
     0
  0
CLASS
  1
AM_DRAWING_MGR
  2
AcDmDwgMgr
  3
AcMechDwgViewMgmt
 90
        0
 91
        1
280
     0
281
     0
  0
CLASS
  1
AM_DWG_DOCUMENT
  2
AcDmDwgDocument
  3
AcMechDwgViewMgmt
 90
        0
 91
        1
280
     0
281
     0
  0
CLASS
  1
AM_DWG_SHEET
  2
AcDmSheet
  3
AcMechDwgViewMgmt
 90
        0
 91
        1
280
     0
281
     0
  0
CLASS
  1
AM_VIEWDIMPARMAP
  2
AcDmViewDimParMap
  3
AcMechDwgViewMgmt
 90
        0
 91
        1
280
     0
281
     0
  0
CLASS
  1
AM_DWGMGR_NAME
  2
AcDmDwgMgrName
  3
AcMechDwgViewMgmt
 90
        0
 91
        1
280
     0
281
     0
  0
CLASS
  1
ACGREFACADMASTER
  2
AcGrefacadMaster
  3
AcGrefServices
 90
        0
 91
        1
280
     0
281
     0
  0
CLASS
  1
AMDTMENUSTATEMGR
  2
AmdtMenuStateMgr
  3
McadcomServices
 90
        0
 91
        1
280
     0
281
     0
  0
CLASS
  1
AMDTMCOMMENUSTATE
  2
AmdtMcomMenuState
  3
McadcomServices
 90
        0
 91
        1
280
     0
281
     0
  0
CLASS
  1
AMIMASTER
  2
AmiMaster
  3
AmiServices
 90
        0
 91
        1
280
     0
281
     0
  0
CLASS
  1
MAPIAMMOUDLE
  2
MApiAmModule
  3
MApiAmServices
 90
        0
 91
        1
280
     0
281
     0
  0
CLASS
  1
AMDTADMENUSTATE
  2
AmdtAdMenuState
  3
DesignerServices
 90
        0
 91
        1
280
     0
281
     0
  0
CLASS
  1
ADAPPL
  2
AcAdAppl
  3
DesignerServices
 90
        0
 91
        1
280
     0
281
     0
  0
CLASS
  1
DEPMGR
  2
AcAdDepMgr
  3
DesignerServices
 90
        0
 91
        1
280
     0
281
     0
  0
CLASS
  1
PARAMMGR
  2
AcAdParamMgr
  3
DesignerServices
 90
        0
 91
        1
280
     0
281
     0
  0
CLASS
  1
PARAMSCOPE
  2
AcAdParamScope
  3
DesignerServices
 90
        0
 91
        1
280
     0
281
     0
  0
CLASS
  1
NAMEDAPPL
  2
AcAdNamedAppl
  3
DesignerServices
 90
        0
 91
        1
280
     0
281
     0
  0
CLASS
  1
AMDTDMMENUSTATE
  2
AmdtDmMenuState
  3
AcMechDwgViewMgmt
 90
        0
 91
        1
280
     0
281
     0
  0
CLASS
  1
AMDTAMMENUSTATE
  2
AmdtAmMenuState
  3
DesignerAssemblies
 90
        0
 91
        1
280
     0
281
     0
  0
CLASS
  1
ACAMPROJECT
  2
AcAmProject
  3
DesignerAssemblies
 90
        0
 91
        1
280
     0
281
     0
  0
CLASS
  1
ACAMGRCOMPDEF
  2
AcAmGrCompDef
  3
DesignerAssemblies
 90
        0
 91
        1
280
     0
281
     0
  0
CLASS
  1
ACCMCONTEXT
  2
AcCmContext
  3
DesignerAssemblies
 90
        0
 91
        1
280
     0
281
     0
  0
CLASS
  1
ACAMCOMPDEF
  2
AcAmCompDef
  3
DesignerAssemblies
 90
        0
 91
        1
280
     0
281
     0
  0
CLASS
  1
ACAMCOMPDEFMGR
  2
AcAmCompDefMgr
  3
DesignerAssemblies
 90
        0
 91
        1
280
     0
281
     0
  0
CLASS
  1
AMCONTEXTMGR
  2
AcAmContextMgr
  3
DesignerAssemblies
 90
        0
 91
        1
280
     0
281
     0
  0
CLASS
  1
ACAMCONTEXTMODELER
  2
AcAmContextModeler
  3
DesignerAssemblies
 90
        0
 91
        1
280
     0
281
     0
  0
CLASS
  1
ACRFATTGENMGR
  2
AcRfAttGeneralMgr
  3
AcAttribServices
 90
        0
 91
        1
280
     0
281
     0
  0
CLASS
  1
ACRFOBJATTMGR
  2
AcRfObjAttGroupMgr
  3
AcAttribServices
 90
        0
 91
        1
280
     0
281
     0
  0
CLASS
  1
ACRFMCADAPIATTHOLDER
  2
AcRfMCADAPIAttHolder
  3
AcAttribServices
 90
        0
 91
        1
280
     0
281
     0
  0
CLASS
  1
AMDTSYSATTR
  2
AmdtSystemAttribute
  3
AcAttribServices
 90
        0
 91
        1
280
     0
281
     0
  0
CLASS
  1
ACAMGTITLESTD
  2
AcAmgTitleStd
  3
"AmgTitle|Product Description: AutoCAD Mechanical|Company: Autodesk"
 90
        0
 91
        5
280
     0
281
     0
  0
CLASS
  1
ACMDETAILSTANDARDJIS
  2
AmdtDetailSymStdJIS
  3
"Amdt_StdImp|Product Description: AutoCAD Mechanical|Company: Autodesk"
 90
        0
 91
        1
280
     0
281
     0
  0
CLASS
  1
ACMSECTIONSTANDARDJIS
  2
AmdtSectionSymStdJIS
  3
"Amdt_StdImp|Product Description: AutoCAD Mechanical|Company: Autodesk"
 90
        0
 91
        1
280
     0
281
     0
  0
CLASS
  1
ACMCENTERLINESTANDARDJIS
  2
AmdtCenterLineStdJIS
  3
"Amdt_StdImp|Product Description: AutoCAD Mechanical|Company: Autodesk"
 90
        0
 91
        1
280
     0
281
     0
  0
CLASS
  1
ACMTHREADLINESTANDARDJIS
  2
AmdtThreadLineStdJIS
  3
"Amdt_StdImp|Product Description: AutoCAD Mechanical|Company: Autodesk"
 90
        0
 91
        1
280
     0
281
     0
  0
CLASS
  1
ACMNOTESTANDARDJIS
  2
AmdtNoteStdJIS
  3
"Amdt_StdImp|Product Description: AutoCAD Mechanical|Company: Autodesk"
 90
        0
 91
        1
280
     0
281
     0
  0
CLASS
  1
AMDTNOTETEMPLATEDB
  2
AmdtNoteTemplateDB
  3
AMDT_STDIMP_MODULE_NAME
 90
        0
 91
       30
280
     0
281
     0
  0
CLASS
  1
ACMTAPERSTANDARDJIS
  2
AcmTaperStdJIS
  3
"Amdt_StdImp|Product Description: AutoCAD Mechanical|Company: Autodesk"
 90
        0
 91
        1
280
     0
281
     0
  0
CLASS
  1
ACMDETAILSTANDARDANSI
  2
AmdtDetailSymStdANSI
  3
"Amdt_StdImp|Product Description: AutoCAD Mechanical|Company: Autodesk"
 90
        0
 91
        1
280
     0
281
     0
  0
CLASS
  1
ACMSECTIONSTANDARDANSI
  2
AmdtSectionSymStdANSI
  3
"Amdt_StdImp|Product Description: AutoCAD Mechanical|Company: Autodesk"
 90
        0
 91
        1
280
     0
281
     0
  0
CLASS
  1
ACMCENTERLINESTANDARDANSI
  2
AmdtCenterLineStdANSI
  3
"Amdt_StdImp|Product Description: AutoCAD Mechanical|Company: Autodesk"
 90
        0
 91
        1
280
     0
281
     0
  0
CLASS
  1
ACMTHREADLINESTANDARDANSI
  2
AmdtThreadLineStdANSI
  3
"Amdt_StdImp|Product Description: AutoCAD Mechanical|Company: Autodesk"
 90
        0
 91
        1
280
     0
281
     0
  0
CLASS
  1
ACMNOTESTANDARDANSI
  2
AmdtNoteStdANSI
  3
"Amdt_StdImp|Product Description: AutoCAD Mechanical|Company: Autodesk"
 90
        0
 91
        1
280
     0
281
     0
  0
CLASS
  1
ACMTAPERSTANDARDANSI
  2
AcmTaperStdANSI
  3
"Amdt_StdImp|Product Description: AutoCAD Mechanical|Company: Autodesk"
 90
        0
 91
        1
280
     0
281
     0
  0
CLASS
  1
ACMDETAILSTANDARDBSI
  2
AmdtDetailSymStdBSI
  3
"Amdt_StdImp|Product Description: AutoCAD Mechanical|Company: Autodesk"
 90
        0
 91
        1
280
     0
281
     0
  0
CLASS
  1
ACMSECTIONSTANDARDBSI
  2
AmdtSectionSymStdBSI
  3
"Amdt_StdImp|Product Description: AutoCAD Mechanical|Company: Autodesk"
 90
        0
 91
        1
280
     0
281
     0
  0
CLASS
  1
ACMCENTERLINESTANDARDBSI
  2
AmdtCenterLineStdBSI
  3
"Amdt_StdImp|Product Description: AutoCAD Mechanical|Company: Autodesk"
 90
        0
 91
        1
280
     0
281
     0
  0
CLASS
  1
ACMTHREADLINESTANDARDBSI
  2
AmdtThreadLineStdBSI
  3
"Amdt_StdImp|Product Description: AutoCAD Mechanical|Company: Autodesk"
 90
        0
 91
        1
280
     0
281
     0
  0
CLASS
  1
ACMNOTESTANDARDBSI
  2
AmdtNoteStdBSI
  3
"Amdt_StdImp|Product Description: AutoCAD Mechanical|Company: Autodesk"
 90
        0
 91
        1
280
     0
281
     0
  0
CLASS
  1
ACMTAPERSTANDARDBSI
  2
AcmTaperStdBSI
  3
"Amdt_StdImp|Product Description: AutoCAD Mechanical|Company: Autodesk"
 90
        0
 91
        1
280
     0
281
     0
  0
CLASS
  1
ACMDETAILSTANDARDDIN
  2
AmdtDetailSymStdDIN
  3
"Amdt_StdImp|Product Description: AutoCAD Mechanical|Company: Autodesk"
 90
        0
 91
        1
280
     0
281
     0
  0
CLASS
  1
ACMSECTIONSTANDARDDIN
  2
AmdtSectionSymStdDIN
  3
"Amdt_StdImp|Product Description: AutoCAD Mechanical|Company: Autodesk"
 90
        0
 91
        1
280
     0
281
     0
  0
CLASS
  1
ACMCENTERLINESTANDARDDIN
  2
AmdtCenterLineStdDIN
  3
"Amdt_StdImp|Product Description: AutoCAD Mechanical|Company: Autodesk"
 90
        0
 91
        1
280
     0
281
     0
  0
CLASS
  1
ACMTHREADLINESTANDARDDIN
  2
AmdtThreadLineStdDIN
  3
"Amdt_StdImp|Product Description: AutoCAD Mechanical|Company: Autodesk"
 90
        0
 91
        1
280
     0
281
     0
  0
CLASS
  1
ACMNOTESTANDARDDIN
  2
AmdtNoteStdDIN
  3
"Amdt_StdImp|Product Description: AutoCAD Mechanical|Company: Autodesk"
 90
        0
 91
        1
280
     0
281
     0
  0
CLASS
  1
ACMTAPERSTANDARDDIN
  2
AcmTaperStdDIN
  3
"Amdt_StdImp|Product Description: AutoCAD Mechanical|Company: Autodesk"
 90
        0
 91
        1
280
     0
281
     0
  0
CLASS
  1
ACMDETAILSTANDARDISO
  2
AmdtDetailSymStdISO
  3
"Amdt_StdImp|Product Description: AutoCAD Mechanical|Company: Autodesk"
 90
        0
 91
        1
280
     0
281
     0
  0
CLASS
  1
ACMSECTIONSTANDARDISO
  2
AmdtSectionSymStdISO
  3
"Amdt_StdImp|Product Description: AutoCAD Mechanical|Company: Autodesk"
 90
        0
 91
        1
280
     0
281
     0
  0
CLASS
  1
ACMCENTERLINESTANDARDISO
  2
AmdtCenterLineStdISO
  3
"Amdt_StdImp|Product Description: AutoCAD Mechanical|Company: Autodesk"
 90
        0
 91
        1
280
     0
281
     0
  0
CLASS
  1
ACMTHREADLINESTANDARDISO
  2
AmdtThreadLineStdISO
  3
"Amdt_StdImp|Product Description: AutoCAD Mechanical|Company: Autodesk"
 90
        0
 91
        1
280
     0
281
     0
  0
CLASS
  1
ACMNOTESTANDARDISO
  2
AmdtNoteStdISO
  3
"Amdt_StdImp|Product Description: AutoCAD Mechanical|Company: Autodesk"
 90
        0
 91
        1
280
     0
281
     0
  0
CLASS
  1
ACMTAPERSTANDARDISO
  2
AcmTaperStdISO
  3
"Amdt_StdImp|Product Description: AutoCAD Mechanical|Company: Autodesk"
 90
        0
 91
        1
280
     0
281
     0
  0
CLASS
  1
ACAMGLAYSTD
  2
AcAmgLayStd
  3
"AmgLay|Product Description: AutoCAD Mechanical|Company: Autodesk"
 90
        0
 91
        5
280
     0
281
     0
  0
CLASS
  1
ACAMGDIMSTD
  2
AcAmgDimStd
  3
"AmgDim|Product Description: AutoCAD Mechanical|Company: Autodesk"
 90
        0
 91
        5
280
     0
281
     0
  0
CLASS
  1
ACAMGHOLECHARTSTDANSI
  2
AcAmgHoleChartStdANSI
  3
ACMSYMBB_MODULE_NAME
 90
        0
 91
        1
280
     0
281
     0
  0
CLASS
  1
ACAMGHOLECHARTSTDBSI
  2
AcAmgHoleChartStdBSI
  3
ACMSYMBB_MODULE_NAME
 90
        0
 91
        1
280
     0
281
     0
  0
CLASS
  1
ACAMGHOLECHARTSTDDIN
  2
AcAmgHoleChartStdDIN
  3
ACMSYMBB_MODULE_NAME
 90
        0
 91
        1
280
     0
281
     0
  0
CLASS
  1
ACAMGHOLECHARTSTDISO
  2
AcAmgHoleChartStdISO
  3
ACMSYMBB_MODULE_NAME
 90
        0
 91
        1
280
     0
281
     0
  0
CLASS
  1
ACAMGHOLECHARTSTDJIS
  2
AcAmgHoleChartStdJIS
  3
ACMSYMBB_MODULE_NAME
 90
        0
 91
        1
280
     0
281
     0
  0
CLASS
  1
CATALOGSTATE
  2
AcAmCatalogState
  3
DesignerAssemblies
 90
        0
 91
        1
280
     0
281
     0
  0
CLASS
  1
ACAMGRCOMPDEFSET
  2
AcAmGrCompDefSet
  3
DesignerAssemblies
 90
        0
 91
        1
280
     0
281
     0
  0
CLASS
  1
AMDTBROWSERDBTAB
  2
AmdtBrowserDbTab
  3
McadcomServices
 90
        0
 91
        1
280
     0
281
     0
  0
CLASS
  1
CBROWSERAPPOBJECT
  2
CBrowserAppObject
  3
McadcomServices
 90
        0
 91
        3
280
     0
281
     0
  0
CLASS
  1
DM_PLACEHOLDER
  2
AcDmSelsetPlaceholder
  3
AcMechDwgViewMgmt
 90
        0
 91
        1
280
     0
281
     0
  0
ENDSEC
  0
SECTION
  2
TABLES
  0
TABLE
  2
VPORT
  5
12
330
0
100
AcDbSymbolTable
 70
     1
  0
VPORT
  5
4414
330
12
100
AcDbSymbolTableRecord
100
AcDbViewportTableRecord
  2
*Active
 70
     0
 10
0.0
 20
0.0
 11
1.0
 21
1.0
 12
693.0841899992913
 22
257.348264582438
 13
0.0
 23
0.0
 14
10.0
 24
10.0
 15
40.0
 25
40.0
 16
0.0
 26
0.0
 36
1.0
 17
0.0
 27
0.0
 37
0.0
 40
880.2695216463636
 41
1.59214501510574
 42
50.0
 43
0.0
 44
0.0
 50
0.0
 51
0.0
 71
     0
 72
   100
 73
     1
 74
     0
 75
     0
 76
     0
 77
     0
 78
     0
281
     0
 65
     1
110
0.0
120
0.0
130
0.0
111
1.0
121
0.0
131
0.0
112
0.0
122
1.0
132
0.0
 79
     0
146
0.0
  0
ENDTAB
  0
TABLE
  2
LTYPE
  5
D
330
0
100
AcDbSymbolTable
 70
    21
  0
LTYPE
  5
E
330
D
100
AcDbSymbolTableRecord
100
AcDbLinetypeTableRecord
  2
BYBLOCK
 70
     0
  3

 72
    65
 73
     0
 40
0.0
  0
LTYPE
  5
F
330
D
100
AcDbSymbolTableRecord
100
AcDbLinetypeTableRecord
  2
BYLAYER
 70
     0
  3

 72
    65
 73
     0
 40
0.0
  0
LTYPE
  5
5
330
D
100
AcDbSymbolTableRecord
100
AcDbLinetypeTableRecord
  2
CONTINUOUS
 70
     0
  3
Solid line
 72
    65
 73
     0
 40
0.0
  0
LTYPE
  5
20
330
D
100
AcDbSymbolTableRecord
100
AcDbLinetypeTableRecord
  2
MITTE
 70
     0
  3
____ _ ____ _ ____ _ ____ _ ____ _ ____ _ ____ 
 72
    65
 73
     4
 40
2.0
 49
1.25
 74
     0
 49
-0.25
 74
     0
 49
0.25
 74
     0
 49
-0.25
 74
     0
  0
LTYPE
  5
129
330
D
100
AcDbSymbolTableRecord
100
AcDbLinetypeTableRecord
  2
STRICHLINIE
 70
     0
  3
Strichlinie __ __ __ __ __ __ __ __ __ __ __ __
 72
    65
 73
     2
 40
0.75
 49
0.5
 74
     0
 49
-0.25
 74
     0
  0
LTYPE
  5
26C
330
D
100
AcDbSymbolTableRecord
100
AcDbLinetypeTableRecord
  2
ACJISTGB
 70
     0
  3
__ . . __ . .
 72
    65
 73
     6
 40
9.0
 49
4.0
 74
     0
 49
-1.0
 74
     0
 49
1.0
 74
     0
 49
-1.0
 74
     0
 49
1.0
 74
     0
 49
-1.0
 74
     0
  0
LTYPE
  5
26D
330
D
100
AcDbSymbolTableRecord
100
AcDbLinetypeTableRecord
  2
ACJISTGL
 70
     0
  3
_ _ _ _ _
 72
    65
 73
     2
 40
3.0
 49
2.0
 74
     0
 49
-1.0
 74
     0
  0
LTYPE
  5
270
330
D
100
AcDbSymbolTableRecord
100
AcDbLinetypeTableRecord
  2
ACANSTGB
 70
     0
  3
__ . . __ . .
 72
    65
 73
     6
 40
0.35433070866
 49
0.15748031496
 74
     0
 49
-0.03937007874
 74
     0
 49
0.03937007874
 74
     0
 49
-0.03937007874
 74
     0
 49
0.03937007874
 74
     0
 49
-0.03937007874
 74
     0
  0
LTYPE
  5
271
330
D
100
AcDbSymbolTableRecord
100
AcDbLinetypeTableRecord
  2
ACANSTGL
 70
     0
  3
_ _ _ _ _
 72
    65
 73
     2
 40
0.11811023622
 49
0.07874015748
 74
     0
 49
-0.03937007874
 74
     0
  0
LTYPE
  5
274
330
D
100
AcDbSymbolTableRecord
100
AcDbLinetypeTableRecord
  2
ACBSIWELD
 70
     0
  3
_ _ _ _ _
 72
    65
 73
     2
 40
2.0
 49
2.0
 74
     0
 49
-1.0
 74
     0
  0
LTYPE
  5
275
330
D
100
AcDbSymbolTableRecord
100
AcDbLinetypeTableRecord
  2
ACBSITGB
 70
     0
  3
__ . . __ . .
 72
    65
 73
     6
 40
9.0
 49
4.0
 74
     0
 49
-1.0
 74
     0
 49
1.0
 74
     0
 49
-1.0
 74
     0
 49
1.0
 74
     0
 49
-1.0
 74
     0
  0
LTYPE
  5
276
330
D
100
AcDbSymbolTableRecord
100
AcDbLinetypeTableRecord
  2
ACBSITGL
 70
     0
  3
_ _ _ _ _
 72
    65
 73
     2
 40
3.0
 49
2.0
 74
     0
 49
-1.0
 74
     0
  0
LTYPE
  5
279
330
D
100
AcDbSymbolTableRecord
100
AcDbLinetypeTableRecord
  2
ACDINWELD
 70
     0
  3
_ _ _ _ _
 72
    65
 73
     2
 40
2.0
 49
2.0
 74
     0
 49
-1.0
 74
     0
  0
LTYPE
  5
27A
330
D
100
AcDbSymbolTableRecord
100
AcDbLinetypeTableRecord
  2
ACDINTGB
 70
     0
  3
__ . . __ . .
 72
    65
 73
     6
 40
9.0
 49
4.0
 74
     0
 49
-1.0
 74
     0
 49
1.0
 74
     0
 49
-1.0
 74
     0
 49
1.0
 74
     0
 49
-1.0
 74
     0
  0
LTYPE
  5
27B
330
D
100
AcDbSymbolTableRecord
100
AcDbLinetypeTableRecord
  2
ACDINTGL
 70
     0
  3
_ _ _ _ _
 72
    65
 73
     2
 40
3.0
 49
2.0
 74
     0
 49
-1.0
 74
     0
  0
LTYPE
  5
27E
330
D
100
AcDbSymbolTableRecord
100
AcDbLinetypeTableRecord
  2
ACISOWELD
 70
     0
  3
_ _ _ _ _
 72
    65
 73
     2
 40
2.0
 49
2.0
 74
     0
 49
-1.0
 74
     0
  0
LTYPE
  5
27F
330
D
100
AcDbSymbolTableRecord
100
AcDbLinetypeTableRecord
  2
ACISOTGB
 70
     0
  3
__ . . __ . .
 72
    65
 73
     6
 40
9.0
 49
4.0
 74
     0
 49
-1.0
 74
     0
 49
1.0
 74
     0
 49
-1.0
 74
     0
 49
1.0
 74
     0
 49
-1.0
 74
     0
  0
LTYPE
  5
280
330
D
100
AcDbSymbolTableRecord
100
AcDbLinetypeTableRecord
  2
ACISOTGL
 70
     0
  3
_ _ _ _ _
 72
    65
 73
     2
 40
3.0
 49
2.0
 74
     0
 49
-1.0
 74
     0
  0
LTYPE
  5
6ED
330
D
100
AcDbSymbolTableRecord
100
AcDbLinetypeTableRecord
  2
Amconstr
 70
     0
  3
_______________________
 72
    65
 73
     2
 40
9999.0
 49
9999.0
 74
     0
 49
0.0
 74
     0
  0
LTYPE
  5
6F3
330
D
100
AcDbSymbolTableRecord
100
AcDbLinetypeTableRecord
  2
PHANTOM2
 70
     0
  3
Phantom (.5x) ___ _ _ ___ _ _ ___ _ _ ___ _ _
 72
    65
 73
     6
 40
1.25
 49
0.625
 74
     0
 49
-0.125
 74
     0
 49
0.125
 74
     0
 49
-0.125
 74
     0
 49
0.125
 74
     0
 49
-0.125
 74
     0
  0
LTYPE
  5
6F4
330
D
100
AcDbSymbolTableRecord
100
AcDbLinetypeTableRecord
  2
Amzigzag2
 70
     0
  3
/\/-/\/-/\/-/\/-/\/-/\/
 72
    65
 73
     2
 40
0.4401
 49
0.0001
 74
     4
 75
   135
340
6F1
 46
0.0016
 50
0.0
 44
0.0
 45
0.0
 49
-0.4400000000000001
 74
     0
  0
LTYPE
  5
445B
330
D
100
AcDbSymbolTableRecord
100
AcDbLinetypeTableRecord
  2
HIDDEN
 70
     0
  3
Verdeckt
 72
    65
 73
     2
 40
0.375
 49
0.25
 74
     0
 49
-0.125
 74
     0
  0
LTYPE
  5
445C
330
D
100
AcDbSymbolTableRecord
100
AcDbLinetypeTableRecord
  2
CENTER
 70
     0
  3
Mitte ____ _ ____ _ ____ _ ____ _ ____ _ ____
 72
    65
 73
     4
 40
2.0
 49
1.25
 74
     0
 49
-0.25
 74
     0
 49
0.25
 74
     0
 49
-0.25
 74
     0
  0
ENDTAB
  0
TABLE
  2
LAYER
  5
A
330
0
100
AcDbSymbolTable
 70
     5
  0
LAYER
  5
4
330
A
100
AcDbSymbolTableRecord
100
AcDbLayerTableRecord
  2
0
 70
     0
 62
     7
  6
CONTINUOUS
370
    -3
390
6C1
  0
LAYER
  5
1F
330
A
100
AcDbSymbolTableRecord
100
AcDbLayerTableRecord
  2
MITTE
 70
     0
 62
     6
  6
MITTE
370
    -3
390
6C1
  0
LAYER
  5
79
330
A
100
AcDbSymbolTableRecord
100
AcDbLayerTableRecord
  2
LINIE
 70
     0
 62
     6
  6
CONTINUOUS
370
    -3
390
6C1
  0
LAYER
  5
30
330
A
100
AcDbSymbolTableRecord
100
AcDbLayerTableRecord
  2
Defpoints
 70
     0
 62
     7
  6
CONTINUOUS
290
     0
370
    -3
390
6C1
  0
ENDTAB
  0
TABLE
  2
STYLE
  5
B
330
0
100
AcDbSymbolTable
 70
    13
  0
STYLE
  5
C
330
B
100
AcDbSymbolTableRecord
100
AcDbTextStyleTableRecord
  2
STANDARD
 70
     0
 40
0.0
 41
1.0
 50
0.0
 71
     0
 42
3.5
  3
romans.shx
  4

  0
STYLE
  5
26A
330
B
100
AcDbSymbolTableRecord
100
AcDbTextStyleTableRecord
  2
ACJISTS
 70
     0
 40
1.0
 41
1.0
 50
0.0
 71
     0
 42
3.5
  3
isocp.shx
  4
bigfont.shx
  0
STYLE
  5
26B
330
B
100
AcDbSymbolTableRecord
100
AcDbTextStyleTableRecord
  2
ACJISGDT
 70
     0
 40
0.0
 41
1.0
 50
0.0
 71
     0
 42
3.5
  3
amgdt.shx
  4

  0
STYLE
  5
26E
330
B
100
AcDbSymbolTableRecord
100
AcDbTextStyleTableRecord
  2
ACANSTSB
 70
     0
 40
1.0
 41
1.0
 50
0.0
 71
     0
 42
3.5
  3
romans.shx
  4

  0
STYLE
  5
26F
330
B
100
AcDbSymbolTableRecord
100
AcDbTextStyleTableRecord
  2
ACANSGDT
 70
     0
 40
0.0
 41
1.0
 50
0.0
 71
     0
 42
3.5
  3
amgdt.shx
  4

  0
STYLE
  5
272
330
B
100
AcDbSymbolTableRecord
100
AcDbTextStyleTableRecord
  2
ACBSITS
 70
     0
 40
1.0
 41
1.0
 50
0.0
 71
     0
 42
3.5
  3
isocp.shx
  4

  0
STYLE
  5
273
330
B
100
AcDbSymbolTableRecord
100
AcDbTextStyleTableRecord
  2
ACBSIGDT
 70
     0
 40
0.0
 41
1.0
 50
0.0
 71
     0
 42
3.5
  3
amgdt.shx
  4

  0
STYLE
  5
277
330
B
100
AcDbSymbolTableRecord
100
AcDbTextStyleTableRecord
  2
ACDINTS
 70
     0
 40
1.0
 41
1.0
 50
0.0
 71
     0
 42
3.5
  3
isocp.shx
  4

  0
STYLE
  5
278
330
B
100
AcDbSymbolTableRecord
100
AcDbTextStyleTableRecord
  2
ACDINGDT
 70
     0
 40
0.0
 41
1.0
 50
0.0
 71
     0
 42
3.5
  3
amgdt.shx
  4

  0
STYLE
  5
27C
330
B
100
AcDbSymbolTableRecord
100
AcDbTextStyleTableRecord
  2
ACISOTS
 70
     0
 40
1.0
 41
1.0
 50
0.0
 71
     0
 42
3.5
  3
isocp.shx
  4

  0
STYLE
  5
27D
330
B
100
AcDbSymbolTableRecord
100
AcDbTextStyleTableRecord
  2
ACISOGDT
 70
     0
 40
0.0
 41
1.0
 50
0.0
 71
     0
 42
3.5
  3
amgdt.shx
  4

  0
STYLE
  5
6F1
330
B
100
AcDbSymbolTableRecord
100
AcDbTextStyleTableRecord
  2

 70
     1
 40
0.0
 41
1.0
 50
0.0
 71
     0
 42
3.5
  3
ltypeshp.shx
  4

  0
STYLE
  5
752
330
B
100
AcDbSymbolTableRecord
100
AcDbTextStyleTableRecord
  2
Stil1
 70
     0
 40
0.0
 41
1.0
 50
0.0
 71
     0
 42
3.5
  3
ARIAL.TTF
  4

1001
ACAD
1000
Arial
1071
       34
  0
ENDTAB
  0
TABLE
  2
VIEW
  5
10
330
0
100
AcDbSymbolTable
 70
     0
  0
ENDTAB
  0
TABLE
  2
UCS
  5
11
330
0
100
AcDbSymbolTable
 70
     0
  0
ENDTAB
  0
TABLE
  2
APPID
  5
14
330
0
100
AcDbSymbolTable
 70
    11
  0
APPID
  5
15
330
14
100
AcDbSymbolTableRecord
100
AcDbRegAppTableRecord
  2
ACAD
 70
     0
  0
APPID
  5
242
330
14
100
AcDbSymbolTableRecord
100
AcDbRegAppTableRecord
  2
MCAD_NO_VIS
 70
     0
  0
APPID
  5
6D1
330
14
100
AcDbSymbolTableRecord
100
AcDbRegAppTableRecord
  2
ACAD_TEMP_GRAPHIC
 70
     0
  0
APPID
  5
770
330
14
100
AcDbSymbolTableRecord
100
AcDbRegAppTableRecord
  2
GENIUS_GENDTOL_13
 70
     0
  0
APPID
  5
445E
330
14
100
AcDbSymbolTableRecord
100
AcDbRegAppTableRecord
  2
AD_DRAW
 70
     0
  0
APPID
  5
4461
330
14
100
AcDbSymbolTableRecord
100
AcDbRegAppTableRecord
  2
ACATTRIBSERVICES
 70
     0
  0
APPID
  5
4480
330
14
100
AcDbSymbolTableRecord
100
AcDbRegAppTableRecord
  2
DESIGNERASSEMBLIES
 70
     0
  0
APPID
  5
44FF
330
14
100
AcDbSymbolTableRecord
100
AcDbRegAppTableRecord
  2
ACADM_DIM_EDIT
 70
     0
  0
APPID
  5
4500
330
14
100
AcDbSymbolTableRecord
100
AcDbRegAppTableRecord
  2
AMDT_DM_ADJ
 70
     0
  0
APPID
  5
450E
330
14
100
AcDbSymbolTableRecord
100
AcDbRegAppTableRecord
  2
ACAD_DSTYLE_DIMARC_LENGTH_SYMBOL
 70
     0
  0
APPID
  5
450F
330
14
100
AcDbSymbolTableRecord
100
AcDbRegAppTableRecord
  2
ACAD_DSTYLE_DIMJOGGED_JOGANGLE_SYMBOL
 70
     0
  0
ENDTAB
  0
TABLE
  2
DIMSTYLE
  5
16
330
0
100
AcDbSymbolTable
 70
    29
100
AcDbDimStyleTable
 71
     1
340
1C
  0
DIMSTYLE
105
1C
102
{ACAD_REACTORS
330
2BAF
102
}
330
16
100
AcDbSymbolTableRecord
100
AcDbDimStyleTableRecord
  2
ISO-25
 70
     0
 41
7.0
 42
0.0
 43
7.0
 44
1.25
 73
     0
 74
     0
 77
     1
 78
     8
140
10.0
141
0.0
144
0.5
147
4.0
172
     1
176
   256
177
   256
178
   256
179
     1
288
     1
289
     0
340
C
  0
DIMSTYLE
105
44CF
330
16
100
AcDbSymbolTableRecord
100
AcDbDimStyleTableRecord
  2
AM_BSI
 70
     0
  4
mm
 41
0.1574803149606299
 42
0.05
 43
0.5
 44
0.1
 47
0.1
 48
0.1
 73
     0
 74
     0
 77
     1
 78
     7
 79
     2
140
0.12
141
0.0
146
0.71
147
0.06
172
     1
176
   256
177
   256
178
     2
274
     4
283
     0
284
     7
340
C
371
    -1
372
    -1
1001
ACAD_DSTYLE_DIMARC_LENGTH_SYMBOL
1070
   379
1070
     1
  0
DIMSTYLE
105
44D0
330
16
100
AcDbSymbolTableRecord
100
AcDbDimStyleTableRecord
  2
AM_BSI$3
 70
     0
  4
mm
 41
0.1574803149606299
 42
0.05
 43
0.5
 44
0.1
 47
0.1
 48
0.1
 73
     0
 77
     1
 78
     7
 79
     2
140
0.12
141
0.0
146
0.71
147
0.06
176
   256
177
   256
178
     2
274
     4
283
     0
284
     7
288
     1
289
     0
340
C
371
    -1
372
    -1
1001
ACAD_DSTYLE_DIMARC_LENGTH_SYMBOL
1070
   379
1070
     1
  0
DIMSTYLE
105
44D1
330
16
100
AcDbSymbolTableRecord
100
AcDbDimStyleTableRecord
  2
AM_BSI$4
 70
     0
  4
mm
 41
0.1574803149606299
 42
0.05
 43
0.5
 44
0.1
 47
0.1
 48
0.1
 73
     0
 77
     1
 78
     7
 79
     2
140
0.12
141
0.0
146
0.71
147
0.06
176
   256
177
   256
178
     2
274
     4
283
     0
284
     7
288
     1
289
     0
340
C
371
    -1
372
    -1
1001
ACAD_DSTYLE_DIMARC_LENGTH_SYMBOL
1070
   379
1070
     1
  0
DIMSTYLE
105
44D2
330
16
100
AcDbSymbolTableRecord
100
AcDbDimStyleTableRecord
  2
AM_BSI$6
 70
     0
  4
mm
 41
0.1574803149606299
 42
0.05
 43
0.5
 44
0.1
 47
0.1
 48
0.1
 73
     0
 74
     0
 78
     7
 79
     2
140
0.12
141
0.0
146
0.71
147
0.06
172
     1
176
   256
177
   256
178
     2
274
     4
283
     0
284
     7
340
C
371
    -1
372
    -1
1001
ACAD_DSTYLE_DIMARC_LENGTH_SYMBOL
1070
   379
1070
     1
  0
DIMSTYLE
105
44D3
330
16
100
AcDbSymbolTableRecord
100
AcDbDimStyleTableRecord
  2
AM_BSI$7
 70
     0
  4
mm
 41
0.1
 42
0.05
 43
0.5
 44
0.1
 47
0.1
 48
0.1
 73
     0
 74
     0
 77
     1
 78
     7
 79
     2
140
0.24
141
0.0
146
0.71
147
0.06
172
     1
176
   256
177
   256
178
     2
274
     4
283
     0
284
     7
340
C
371
    -1
372
    -1
1001
ACAD_DSTYLE_DIMARC_LENGTH_SYMBOL
1070
   379
1070
     1
  0
DIMSTYLE
105
44D4
330
16
100
AcDbSymbolTableRecord
100
AcDbDimStyleTableRecord
  2
AM_BSI$SF
 70
     0
  4
mm
 41
0.1574803149606299
 42
0.05
 43
0.5
 44
0.1
 47
0.1
 48
0.1
 73
     0
 74
     0
 75
     1
 76
     1
 77
     1
 78
     7
 79
     2
140
0.12
141
0.0
146
0.71
147
0.06
172
     1
176
   256
177
   256
178
     2
274
     4
283
     0
284
     7
340
C
371
    -1
372
    -1
1001
ACAD_DSTYLE_DIMARC_LENGTH_SYMBOL
1070
   379
1070
     1
  0
DIMSTYLE
105
44D9
330
16
100
AcDbSymbolTableRecord
100
AcDbDimStyleTableRecord
  2
AM_BSI$SH
 70
     0
  4
mm
 41
0.1574803149606299
 42
0.05
 43
0.5
 44
0.1
 47
0.1
 48
0.1
 73
     0
 74
     0
 75
     1
 76
     1
 77
     1
 78
     7
 79
     2
140
0.12
141
0.0
144
2.0
146
0.71
147
0.06
172
     1
173
     1
176
   256
177
   256
178
     2
274
     4
283
     0
284
     7
340
C
343
44D5
371
    -1
372
    -1
1001
ACAD_DSTYLE_DIMARC_LENGTH_SYMBOL
1070
   379
1070
     1
  0
DIMSTYLE
105
44DC
330
16
100
AcDbSymbolTableRecord
100
AcDbDimStyleTableRecord
  2
AM_DIN
 70
     0
  4
mm
 41
0.1
 42
0.05
 43
0.5
 44
0.1
 47
0.1
 48
0.1
 73
     0
 74
     0
 77
     1
 78
     7
 79
     2
140
0.12
141
0.0
146
0.71
147
0.06
172
     1
176
   256
177
   256
178
     2
274
     4
283
     0
284
     7
340
C
371
    -1
372
    -1
1001
ACAD_DSTYLE_DIMJOGGED_JOGANGLE_SYMBOL
1070
   384
1040
1.570796326794896
  0
DIMSTYLE
105
44DD
330
16
100
AcDbSymbolTableRecord
100
AcDbDimStyleTableRecord
  2
AM_DIN$3
 70
     0
  4
mm
 41
0.1
 42
0.05
 43
0.5
 44
0.1
 47
0.1
 48
0.1
 73
     0
 77
     1
 78
     7
 79
     2
140
0.12
141
0.0
146
0.71
147
0.06
176
   256
177
   256
178
     2
274
     4
283
     0
284
     7
288
     1
289
     0
340
C
371
    -1
372
    -1
1001
ACAD_DSTYLE_DIMJOGGED_JOGANGLE_SYMBOL
1070
   384
1040
1.570796326794896
  0
DIMSTYLE
105
44DE
330
16
100
AcDbSymbolTableRecord
100
AcDbDimStyleTableRecord
  2
AM_DIN$4
 70
     0
  4
mm
 41
0.1
 42
0.05
 43
0.5
 44
0.1
 47
0.1
 48
0.1
 73
     0
 77
     1
 78
     7
 79
     2
140
0.12
141
0.0
146
0.71
147
0.06
176
   256
177
   256
178
     2
274
     4
283
     0
284
     7
288
     1
289
     0
340
C
371
    -1
372
    -1
1001
ACAD_DSTYLE_DIMJOGGED_JOGANGLE_SYMBOL
1070
   384
1040
1.570796326794896
  0
DIMSTYLE
105
44DF
330
16
100
AcDbSymbolTableRecord
100
AcDbDimStyleTableRecord
  2
AM_DIN$6
 70
     0
  4
mm
 41
0.1
 42
0.05
 43
0.5
 44
0.1
 47
0.1
 48
0.1
 73
     0
 74
     0
 78
     7
 79
     2
140
0.12
141
0.0
146
0.71
147
0.06
172
     1
176
   256
177
   256
178
     2
274
     4
283
     0
284
     7
340
C
371
    -1
372
    -1
1001
ACAD_DSTYLE_DIMJOGGED_JOGANGLE_SYMBOL
1070
   384
1040
1.570796326794896
  0
DIMSTYLE
105
44E0
330
16
100
AcDbSymbolTableRecord
100
AcDbDimStyleTableRecord
  2
AM_DIN$7
 70
     0
  4
mm
 41
0.1
 42
0.05
 43
0.5
 44
0.1
 47
0.1
 48
0.1
 73
     0
 74
     0
 77
     1
 78
     7
 79
     2
140
0.24
141
0.0
146
0.71
147
0.06
172
     1
176
   256
177
   256
178
     2
274
     4
283
     0
284
     7
340
C
371
    -1
372
    -1
1001
ACAD_DSTYLE_DIMJOGGED_JOGANGLE_SYMBOL
1070
   384
1040
1.570796326794896
  0
DIMSTYLE
105
44E1
330
16
100
AcDbSymbolTableRecord
100
AcDbDimStyleTableRecord
  2
AM_DIN$SF
 70
     0
  4
mm
 41
0.1
 42
0.05
 43
0.5
 44
0.1
 47
0.1
 48
0.1
 73
     0
 74
     0
 75
     1
 76
     1
 77
     1
 78
     7
 79
     2
140
0.12
141
0.0
146
0.71
147
0.06
172
     1
176
   256
177
   256
178
     2
274
     4
283
     0
284
     7
340
C
371
    -1
372
    -1
1001
ACAD_DSTYLE_DIMJOGGED_JOGANGLE_SYMBOL
1070
   384
1040
1.570796326794896
  0
DIMSTYLE
105
44E2
330
16
100
AcDbSymbolTableRecord
100
AcDbDimStyleTableRecord
  2
AM_DIN$SH
 70
     0
  4
mm
 41
0.1
 42
0.05
 43
0.5
 44
0.1
 47
0.1
 48
0.1
 73
     0
 74
     0
 75
     1
 76
     1
 77
     1
 78
     7
 79
     2
140
0.12
141
0.0
144
2.0
146
0.71
147
0.06
172
     1
173
     1
176
   256
177
   256
178
     2
274
     4
283
     0
284
     7
340
C
343
44D5
371
    -1
372
    -1
1001
ACAD_DSTYLE_DIMJOGGED_JOGANGLE_SYMBOL
1070
   384
1040
1.570796326794896
  0
DIMSTYLE
105
44E5
330
16
100
AcDbSymbolTableRecord
100
AcDbDimStyleTableRecord
  2
AM_ISO
 70
     0
  4
mm
 41
0.1
 42
0.05
 43
0.5
 44
0.1
 47
0.1
 48
0.1
 73
     0
 74
     0
 77
     1
 78
     7
 79
     2
140
0.12
141
0.0
146
0.71
147
0.06
172
     1
176
   256
177
   256
178
     2
274
     4
283
     0
284
     7
340
C
371
    -1
372
    -1
1001
ACAD_DSTYLE_DIMARC_LENGTH_SYMBOL
1070
   379
1070
     1
  0
DIMSTYLE
105
44E6
330
16
100
AcDbSymbolTableRecord
100
AcDbDimStyleTableRecord
  2
AM_ISO$3
 70
     0
  4
mm
 41
0.1
 42
0.05
 43
0.5
 44
0.1
 47
0.1
 48
0.1
 73
     0
 77
     1
 78
     7
 79
     2
140
0.12
141
0.0
146
0.71
147
0.06
176
   256
177
   256
178
     2
274
     4
283
     0
284
     7
288
     1
289
     0
340
C
371
    -1
372
    -1
1001
ACAD_DSTYLE_DIMARC_LENGTH_SYMBOL
1070
   379
1070
     1
  0
DIMSTYLE
105
44E7
330
16
100
AcDbSymbolTableRecord
100
AcDbDimStyleTableRecord
  2
AM_ISO$4
 70
     0
  4
mm
 41
0.1
 42
0.05
 43
0.5
 44
0.1
 47
0.1
 48
0.1
 73
     0
 77
     1
 78
     7
 79
     2
140
0.12
141
0.0
146
0.71
147
0.06
176
   256
177
   256
178
     2
274
     4
283
     0
284
     7
288
     1
289
     0
340
C
371
    -1
372
    -1
1001
ACAD_DSTYLE_DIMARC_LENGTH_SYMBOL
1070
   379
1070
     1
  0
DIMSTYLE
105
44E8
330
16
100
AcDbSymbolTableRecord
100
AcDbDimStyleTableRecord
  2
AM_ISO$6
 70
     0
  4
mm
 41
0.1
 42
0.05
 43
0.5
 44
0.1
 47
0.1
 48
0.1
 73
     0
 74
     0
 78
     7
 79
     2
140
0.12
141
0.0
146
0.71
147
0.06
172
     1
176
   256
177
   256
178
     2
274
     4
283
     0
284
     7
340
C
371
    -1
372
    -1
1001
ACAD_DSTYLE_DIMARC_LENGTH_SYMBOL
1070
   379
1070
     1
  0
DIMSTYLE
105
44E9
330
16
100
AcDbSymbolTableRecord
100
AcDbDimStyleTableRecord
  2
AM_ISO$7
 70
     0
  4
mm
 41
0.1
 42
0.05
 43
0.5
 44
0.1
 47
0.1
 48
0.1
 73
     0
 74
     0
 77
     1
 78
     7
 79
     2
140
0.24
141
0.0
146
0.71
147
0.06
172
     1
176
   256
177
   256
178
     2
274
     4
283
     0
284
     7
340
C
371
    -1
372
    -1
1001
ACAD_DSTYLE_DIMARC_LENGTH_SYMBOL
1070
   379
1070
     1
  0
DIMSTYLE
105
44EA
330
16
100
AcDbSymbolTableRecord
100
AcDbDimStyleTableRecord
  2
AM_ISO$SF
 70
     0
  4
mm
 41
0.1
 42
0.05
 43
0.5
 44
0.1
 47
0.1
 48
0.1
 73
     0
 74
     0
 75
     1
 76
     1
 77
     1
 78
     7
 79
     2
140
0.12
141
0.0
146
0.71
147
0.06
172
     1
176
   256
177
   256
178
     2
274
     4
283
     0
284
     7
340
C
371
    -1
372
    -1
1001
ACAD_DSTYLE_DIMARC_LENGTH_SYMBOL
1070
   379
1070
     1
  0
DIMSTYLE
105
44EB
330
16
100
AcDbSymbolTableRecord
100
AcDbDimStyleTableRecord
  2
AM_ISO$SH
 70
     0
  4
mm
 41
0.1
 42
0.05
 43
0.5
 44
0.1
 47
0.1
 48
0.1
 73
     0
 74
     0
 75
     1
 76
     1
 77
     1
 78
     7
 79
     2
140
0.12
141
0.0
144
2.0
146
0.71
147
0.06
172
     1
173
     1
176
   256
177
   256
178
     2
274
     4
283
     0
284
     7
340
C
343
44D5
371
    -1
372
    -1
1001
ACAD_DSTYLE_DIMARC_LENGTH_SYMBOL
1070
   379
1070
     1
  0
DIMSTYLE
105
44EE
330
16
100
AcDbSymbolTableRecord
100
AcDbDimStyleTableRecord
  2
AM_JIS
 70
     0
  4
mm
 41
0.1
 42
0.05
 43
0.5
 44
0.1
 47
0.1
 48
0.1
 73
     0
 74
     0
 77
     3
 78
     7
 79
     2
140
0.12
141
0.0
146
0.71
147
0.06
172
     1
176
   256
177
   256
178
     2
274
     4
283
     0
284
     7
340
C
341
44EF
342
44EF
343
44EF
344
44EF
371
    -1
372
    -1
1001
ACAD_DSTYLE_DIMARC_LENGTH_SYMBOL
1070
   379
1070
     1
  0
DIMSTYLE
105
44F5
330
16
100
AcDbSymbolTableRecord
100
AcDbDimStyleTableRecord
  2
AM_JIS$3
 70
     0
  4
mm
 41
0.1
 42
0.05
 43
0.5
 44
0.1
 47
0.1
 48
0.1
 73
     0
 77
     3
 78
     7
 79
     2
140
0.12
141
0.0
146
0.71
147
0.06
176
   256
177
   256
178
     2
274
     4
283
     0
284
     7
288
     1
289
     0
340
C
341
44EF
342
44EF
343
44EF
344
44EF
371
    -1
372
    -1
1001
ACAD_DSTYLE_DIMARC_LENGTH_SYMBOL
1070
   379
1070
     1
  0
DIMSTYLE
105
44F6
330
16
100
AcDbSymbolTableRecord
100
AcDbDimStyleTableRecord
  2
AM_JIS$4
 70
     0
  4
mm
 41
0.1
 42
0.05
 43
0.5
 44
0.1
 47
0.1
 48
0.1
 73
     0
 77
     3
 78
     7
 79
     2
140
0.12
141
0.0
146
0.71
147
0.06
176
   256
177
   256
178
     2
274
     4
283
     0
284
     7
288
     1
289
     0
340
C
341
44EF
342
44EF
343
44EF
344
44EF
371
    -1
372
    -1
1001
ACAD_DSTYLE_DIMARC_LENGTH_SYMBOL
1070
   379
1070
     1
  0
DIMSTYLE
105
44F7
330
16
100
AcDbSymbolTableRecord
100
AcDbDimStyleTableRecord
  2
AM_JIS$6
 70
     0
  4
mm
 41
0.1
 42
0.05
 43
0.5
 44
0.1
 47
0.1
 48
0.1
 73
     0
 74
     0
 78
     7
 79
     2
140
0.12
141
0.0
146
0.71
147
0.06
172
     1
176
   256
177
   256
178
     2
274
     4
283
     0
284
     7
340
C
341
44EF
342
44EF
343
44EF
344
44EF
371
    -1
372
    -1
1001
ACAD_DSTYLE_DIMARC_LENGTH_SYMBOL
1070
   379
1070
     1
  0
DIMSTYLE
105
44F8
330
16
100
AcDbSymbolTableRecord
100
AcDbDimStyleTableRecord
  2
AM_JIS$7
 70
     0
  4
mm
 41
0.1
 42
0.05
 43
0.5
 44
0.1
 47
0.1
 48
0.1
 73
     0
 74
     0
 77
     3
 78
     7
 79
     2
140
0.24
141
0.0
146
0.71
147
0.06
172
     1
176
   256
177
   256
178
     2
274
     4
283
     0
284
     7
340
C
341
44EF
342
44EF
343
44EF
344
44EF
371
    -1
372
    -1
1001
ACAD_DSTYLE_DIMARC_LENGTH_SYMBOL
1070
   379
1070
     1
  0
DIMSTYLE
105
44F9
330
16
100
AcDbSymbolTableRecord
100
AcDbDimStyleTableRecord
  2
AM_JIS$SF
 70
     0
  4
mm
 41
0.1
 42
0.05
 43
0.5
 44
0.1
 47
0.1
 48
0.1
 73
     0
 74
     0
 75
     1
 76
     1
 77
     3
 78
     7
 79
     2
140
0.12
141
0.0
146
0.71
147
0.06
172
     1
176
   256
177
   256
178
     2
274
     4
283
     0
284
     7
340
C
341
44EF
342
44EF
343
44EF
344
44EF
371
    -1
372
    -1
1001
ACAD_DSTYLE_DIMARC_LENGTH_SYMBOL
1070
   379
1070
     1
  0
DIMSTYLE
105
44FA
330
16
100
AcDbSymbolTableRecord
100
AcDbDimStyleTableRecord
  2
AM_JIS$SH
 70
     0
  4
mm
 41
0.1
 42
0.05
 43
0.5
 44
0.1
 47
0.1
 48
0.1
 73
     0
 74
     0
 75
     1
 76
     1
 77
     3
 78
     7
 79
     2
140
0.12
141
0.0
144
2.0
146
0.71
147
0.06
172
     1
173
     1
176
   256
177
   256
178
     2
274
     4
283
     0
284
     7
340
C
341
44EF
342
44EF
343
44D5
344
44EF
371
    -1
372
    -1
1001
ACAD_DSTYLE_DIMARC_LENGTH_SYMBOL
1070
   379
1070
     1
  0
ENDTAB
  0
TABLE
  2
BLOCK_RECORD
  5
1
330
0
100
AcDbSymbolTable
 70
    20
  0
BLOCK_RECORD
  5
2
102
{ACAD_XDICTIONARY
360
28B
102
}
330
1
100
AcDbSymbolTableRecord
100
AcDbBlockTableRecord
  2
*MODEL_SPACE
340
6C4
  0
BLOCK_RECORD
  5
7
330
1
100
AcDbSymbolTableRecord
100
AcDbBlockTableRecord
  2
*PAPER_SPACE
340
6C5
  0
BLOCK_RECORD
  5
44D5
330
1
100
AcDbSymbolTableRecord
100
AcDbBlockTableRecord
  2
GENAXEH
340
0
  0
BLOCK_RECORD
  5
44EF
330
1
100
AcDbSymbolTableRecord
100
AcDbBlockTableRecord
  2
_Open30
340
0
  0
ENDTAB
  0
ENDSEC
  0
SECTION
  2
BLOCKS
  0
BLOCK
  5
3
330
2
100
AcDbEntity
  8
0
100
AcDbBlockBegin
  2
*MODEL_SPACE
 70
     0
 10
0.0
 20
0.0
 30
0.0
  3
*MODEL_SPACE
  1

  0
ENDBLK
  5
6
330
2
100
AcDbEntity
  8
0
100
AcDbBlockEnd
  0
BLOCK
  5
8
330
7
100
AcDbEntity
 67
     1
  8
0
100
AcDbBlockBegin
  2
*PAPER_SPACE
 70
     0
 10
0.0
 20
0.0
 30
0.0
  3
*PAPER_SPACE
  1

  0
ENDBLK
  5
9
330
7
100
AcDbEntity
 67
     1
  8
0
100
AcDbBlockEnd
  0
BLOCK
  5
44D7
330
44D5
100
AcDbEntity
  8
0
 48
10.0
100
AcDbBlockBegin
  2
GENAXEH
 70
     0
 10
0.0
 20
0.0
 30
0.0
  3
GENAXEH
  1

  0
LINE
  5
44D6
330
44D5
100
AcDbEntity
  8
0
100
AcDbLine
 10
-1.0
 20
0.0
 30
0.0
 11
1.0
 21
0.0
 31
0.0
  0
ENDBLK
  5
44D8
330
44D5
100
AcDbEntity
  8
0
 48
10.0
100
AcDbBlockEnd
  0
BLOCK
  5
44F3
330
44EF
100
AcDbEntity
  8
0
 48
10.0
100
AcDbBlockBegin
  2
_Open30
 70
     0
 10
0.0
 20
0.0
 30
0.0
  3
_Open30
  1

  0
LINE
  5
44F0
330
44EF
100
AcDbEntity
  8
0
  6
ByBlock
 62
     0
370
    -2
100
AcDbLine
 10
-1.0
 20
0.26794919
 30
0.0
 11
0.0
 21
0.0
 31
0.0
  0
LINE
  5
44F1
330
44EF
100
AcDbEntity
  8
0
  6
ByBlock
 62
     0
370
    -2
100
AcDbLine
 10
0.0
 20
0.0
 30
0.0
 11
-1.0
 21
-0.26794919
 31
0.0
  0
LINE
  5
44F2
330
44EF
100
AcDbEntity
  8
0
  6
ByBlock
 62
     0
370
    -2
100
AcDbLine
 10
0.0
 20
0.0
 30
0.0
 11
-1.0
 21
0.0
 31
0.0
  0
ENDBLK
  5
44F4
330
44EF
100
AcDbEntity
  8
0
 48
10.0
100
AcDbBlockEnd
  0
ENDSEC
  0
SECTION
  2
ENTITIES
  0
LINE
  5
1A77
330
2
100
AcDbEntity
  8
MITTE
 48
10.0
100
AcDbLine
 10
250.8012621271118
 20
254.4472517742472
 30
0.0
 11
332.0424677846254
 21
254.4472517742472
 31
0.0
  0
ARC
  5
1AA1
330
2
100
AcDbEntity
  8
0
100
AcDbCircle
 10
291.3745749434147
 20
309.4472517742472
 30
0.0
 40
15.0
100
AcDbArc
 50
24.71985118290023
 51
155.2801488170998
  0
LINE
  5
1AA2
330
2
100
AcDbEntity
  8
0
100
AcDbLine
 10
325.8923820618357
 20
270.3381608651548
 30
0.0
 11
305.0000251217387
 21
315.7199790469738
 31
0.0
  0
CIRCLE
  5
1AA3
330
2
100
AcDbEntity
  8
0
100
AcDbCircle
 10
291.3745749434147
 20
309.4472517742472
 30
0.0
 40
7.0
  0
LINE
  5
1AA4
330
2
100
AcDbEntity
  8
0
100
AcDbLine
 10
256.8567678249938
 20
270.3381608651548
 30
0.0
 11
277.7491247650905
 21
315.7199790469738
 31
0.0
  0
ARC
  5
1AA5
330
2
100
AcDbEntity
  8
0
100
AcDbCircle
 10
291.3745749434147
 20
254.4472517742472
 30
0.0
 40
38.0
100
AcDbArc
 50
155.2801488170998
 51
204.7198511829003
  0
ARC
  5
1AA6
330
2
100
AcDbEntity
  8
0
100
AcDbCircle
 10
291.3745749434147
 20
254.4472517742472
 30
0.0
 40
38.0
100
AcDbArc
 50
335.2801488170998
 51
24.71985118290023
  0
LINE
  5
1AA7
330
2
100
AcDbEntity
  8
0
100
AcDbLine
 10
256.8567678249938
 20
238.5563426833396
 30
0.0
 11
266.4653957319056
 21
217.6847384934192
 31
0.0
  0
ARC
  5
1AA8
330
2
100
AcDbEntity
  8
0
100
AcDbCircle
 10
291.3745749434147
 20
199.4472517742472
 30
0.0
 40
15.0
100
AcDbArc
 50
204.7198511829003
 51
335.2801488170998
  0
LINE
  5
1AA9
330
2
100
AcDbEntity
  8
0
100
AcDbLine
 10
325.8923820618357
 20
238.5563426833394
 30
0.0
 11
316.2837541549236
 21
217.6847384934195
 31
0.0
  0
LINE
  5
1AAC
330
2
100
AcDbEntity
  8
MITTE
 48
10.0
100
AcDbLine
 10
291.3745749434147
 20
328.1978343360122
 30
0.0
 11
291.3745749434147
 21
179.9353694994686
 31
0.0
  0
LINE
  5
1AAD
330
2
100
AcDbEntity
  8
MITTE
 48
4.0
100
AcDbLine
 10
283.4139359313237
 20
309.9898135326596
 30
0.0
 11
300.6512768789928
 21
309.9898135326596
 31
0.0
  0
LINE
  5
2B2A
330
2
100
AcDbEntity
  8
0
100
AcDbLine
 10
539.902997128614
 20
223.4472517742474
 30
0.0
 11
660.902997128614
 21
223.4472517742474
 31
0.0
  0
LINE
  5
2B2B
330
2
100
AcDbEntity
  8
0
100
AcDbLine
 10
539.902997128614
 20
285.4472517742475
 30
0.0
 11
660.902997128614
 21
285.4472517742475
 31
0.0
  0
LINE
  5
2B31
330
2
100
AcDbEntity
  8
MITTE
 48
15.0
100
AcDbLine
 10
358.2050759778831
 20
254.4472517742474
 30
0.0
 11
685.6699169702172
 21
254.4472517742474
 31
0.0
  0
LINE
  5
2B9D
330
2
100
AcDbEntity
  8
0
100
AcDbLine
 10
401.5029971286139
 20
263.4472517742474
 30
0.0
 11
363.502997128614
 21
263.4472517742474
 31
0.0
1001
ACAD
1000
ASC_BOUNDS
1002
{
1070
    19
1002
}
  0
LINE
  5
2B9E
330
2
100
AcDbEntity
  8
0
100
AcDbLine
 10
401.5029971286139
 20
245.4472517742474
 30
0.0
 11
363.502997128614
 21
245.4472517742474
 31
0.0
1001
ACAD
1000
ASC_BOUNDS
1002
{
1070
    19
1002
}
  0
LINE
  5
2BA8
330
2
100
AcDbEntity
  8
0
100
AcDbLine
 10
361.502997128614
 20
261.4472517742474
 30
0.0
 11
361.502997128614
 21
247.4472517742474
 31
0.0
1001
ACAD
1000
ASC_BOUNDS
1002
{
1070
    19
1005
0
1005
0
1002
}
  0
LINE
  5
2BA9
330
2
100
AcDbEntity
  8
0
100
AcDbLine
 10
363.502997128614
 20
263.4472517742474
 30
0.0
 11
363.502997128614
 21
245.4472517742474
 31
0.0
  0
LINE
  5
2BAA
330
2
100
AcDbEntity
  8
0
100
AcDbLine
 10
361.502997128614
 20
247.4472517742474
 30
0.0
 11
363.502997128614
 21
245.4472517742474
 31
0.0
1001
ACAD
1000
ASC_BOUNDS
1002
{
1070
    19
1002
}
  0
LINE
  5
2BAB
330
2
100
AcDbEntity
  8
0
100
AcDbLine
 10
361.502997128614
 20
261.4472517742474
 30
0.0
 11
363.502997128614
 21
263.4472517742474
 31
0.0
1001
ACAD
1000
ASC_BOUNDS
1002
{
1070
    19
1002
}
  0
LINE
  5
2BAC
330
2
100
AcDbEntity
  8
0
100
AcDbLine
 10
427.5029971286139
 20
324.4472517742474
 30
0.0
 11
427.5029971286139
 21
184.4472517742474
 31
0.0
  0
LINE
  5
2BAD
330
2
100
AcDbEntity
  8
0
100
AcDbLine
 10
407.502997128614
 20
324.4472517742474
 30
0.0
 11
407.502997128614
 21
184.4472517742474
 31
0.0
  0
LINE
  5
2BB1
330
2
100
AcDbEntity
  8
0
100
AcDbLine
 10
538.702997128614
 20
285.4472517742475
 30
0.0
 11
443.702997128614
 21
285.4472517742475
 31
0.0
  0
LINE
  5
2BB2
330
2
100
AcDbEntity
  8
0
100
AcDbLine
 10
538.702997128614
 20
223.4472517742474
 30
0.0
 11
443.702997128614
 21
223.4472517742474
 31
0.0
  0
ARC
  5
2BB3
330
2
100
AcDbEntity
  8
0
100
AcDbCircle
 10
432.502997128614
 20
218.4472517742474
 30
0.0
 40
5.0
100
AcDbArc
 50
90.0
 51
180.0
  0
LINE
  5
2BB4
330
2
100
AcDbEntity
  8
0
100
AcDbLine
 10
427.5029971286139
 20
184.4472517742474
 30
0.0
 11
407.502997128614
 21
184.4472517742474
 31
0.0
  0
LINE
  5
2BB5
330
2
100
AcDbEntity
  8
LINIE
  6
STRICHLINIE
 48
10.0
100
AcDbLine
 10
407.502997128614
 20
193.4472517742474
 30
0.0
 11
427.5029971286139
 21
193.4472517742474
 31
0.0
  0
LINE
  5
2BB6
330
2
100
AcDbEntity
  8
LINIE
  6
STRICHLINIE
 48
10.0
100
AcDbLine
 10
407.502997128614
 20
207.4472517742474
 30
0.0
 11
427.5029971286139
 21
207.4472517742474
 31
0.0
  0
LINE
  5
2BB7
330
2
100
AcDbEntity
  8
MITTE
 48
5.0
100
AcDbLine
 10
404.2523785061166
 20
200.4472517742474
 30
0.0
 11
430.1941275326266
 21
200.4472517742474
 31
0.0
  0
LINE
  5
2BBC
330
2
100
AcDbEntity
  8
0
100
AcDbLine
 10
432.502997128614
 20
223.4472517742474
 30
0.0
 11
443.5029971286139
 21
223.4472517742474
 31
0.0
  0
LINE
  5
2BBD
330
2
100
AcDbEntity
  8
0
100
AcDbLine
 10
432.502997128614
 20
285.4472517742475
 30
0.0
 11
443.5029971286139
 21
285.4472517742475
 31
0.0
  0
LINE
  5
2BBE
330
2
100
AcDbEntity
  8
LINIE
100
AcDbLine
 10
432.502997128614
 20
282.3691985374453
 30
0.0
 11
432.502997128614
 21
226.6200343491255
 31
0.0
  0
LINE
  5
2BBF
330
2
100
AcDbEntity
  8
0
100
AcDbLine
 10
402.5029971286139
 20
284.4472517742474
 30
0.0
 11
402.5029971286139
 21
224.4472517742474
 31
0.0
  0
LINE
  5
2BC0
330
2
100
AcDbEntity
  8
0
100
AcDbLine
 10
401.5029971286139
 20
284.1793025818163
 30
0.0
 11
401.5029971286139
 21
224.7152009666786
 31
0.0
  0
LINE
  5
2BC2
330
2
100
AcDbEntity
  8
0
100
AcDbLine
 10
402.5029971286139
 20
224.4472517742474
 30
0.0
 11
407.1029971286141
 21
224.4472517742474
 31
0.0
  0
LINE
  5
2BC3
330
2
100
AcDbEntity
  8
0
100
AcDbLine
 10
402.5029971286139
 20
224.4472517742474
 30
0.0
 11
401.5029971286139
 21
224.7152009666786
 31
0.0
  0
LINE
  5
2BC4
330
2
100
AcDbEntity
  8
0
100
AcDbLine
 10
369.4710481654263
 20
265.8472517742475
 30
0.0
 11
389.5349460918014
 21
265.8472517742475
 31
0.0
  0
LINE
  5
2BC5
330
2
100
AcDbEntity
  8
MITTE
 48
5.0
100
AcDbLine
 10
379.502997128614
 20
270.3336197983854
 30
0.0
 11
379.502997128614
 21
259.021976842359
 31
0.0
1001
ACAD
1000
ASC_BOUNDS
1002
{
1070
    19
1005
0
1005
0
1002
}
  0
ARC
  5
2BC6
330
2
100
AcDbEntity
  8
0
100
AcDbCircle
 10
379.502997128614
 20
268.9472517742474
 30
0.0
 40
10.5
100
AcDbArc
 50
197.1718151492265
 51
211.5881355052006
1001
ACAD
1000
ASC_BOUNDS
1002
{
1070
    19
1002
}
  0
ARC
  5
2BC7
330
2
100
AcDbEntity
  8
0
100
AcDbCircle
 10
379.502997128614
 20
268.9472517742474
 30
0.0
 40
10.5
100
AcDbArc
 50
328.4118644947994
 51
342.8281848507735
1001
ACAD
1000
ASC_BOUNDS
1002
{
1070
    19
1002
}
  0
ARC
  5
2BC8
330
2
100
AcDbEntity
  8
0
100
AcDbCircle
 10
407.1029971286141
 20
224.0472517742473
 30
0.0
 40
0.4
100
AcDbArc
 50
0.0
 51
90.0
  0
LINE
  5
2BC9
330
2
100
AcDbEntity
  8
0
100
AcDbLine
 10
402.5029971286139
 20
284.4472517742474
 30
0.0
 11
407.1029971286141
 21
284.4472517742474
 31
0.0
  0
LINE
  5
2BCA
330
2
100
AcDbEntity
  8
0
100
AcDbLine
 10
402.5029971286139
 20
284.4472517742474
 30
0.0
 11
401.5029971286139
 21
284.1793025818163
 31
0.0
  0
ARC
  5
2BCB
330
2
100
AcDbEntity
  8
0
100
AcDbCircle
 10
407.1029971286141
 20
284.8472517742475
 30
0.0
 40
0.4
100
AcDbArc
 50
270.0
 51
0.0
  0
ARC
  5
2BCC
330
2
100
AcDbEntity
  8
0
100
AcDbCircle
 10
432.502997128614
 20
290.4472517742474
 30
0.0
 40
5.0
100
AcDbArc
 50
180.0
 51
270.0
  0
LINE
  5
2BCD
330
2
100
AcDbEntity
  8
LINIE
  6
STRICHLINIE
 48
10.0
100
AcDbLine
 10
407.502997128614
 20
301.4472517742474
 30
0.0
 11
427.5029971286139
 21
301.4472517742474
 31
0.0
  0
LINE
  5
2BCE
330
2
100
AcDbEntity
  8
LINIE
  6
STRICHLINIE
 48
10.0
100
AcDbLine
 10
407.502997128614
 20
315.4472517742474
 30
0.0
 11
427.5029971286139
 21
315.4472517742474
 31
0.0
  0
LINE
  5
2BCF
330
2
100
AcDbEntity
  8
MITTE
 48
5.0
100
AcDbLine
 10
404.2523785061164
 20
308.4472517742474
 30
0.0
 11
430.1941275326264
 21
308.4472517742474
 31
0.0
  0
LINE
  5
2BD0
330
2
100
AcDbEntity
  8
0
100
AcDbLine
 10
443.702997128614
 20
223.4472517742474
 30
0.0
 11
443.702997128614
 21
285.4472517742475
 31
0.0
  0
LINE
  5
2BD1
330
2
100
AcDbEntity
  8
0
100
AcDbLine
 10
443.5029971286139
 20
285.4472517742475
 30
0.0
 11
443.5029971286139
 21
223.4472517742474
 31
0.0
  0
LINE
  5
2BD2
330
2
100
AcDbEntity
  8
0
100
AcDbLine
 10
443.5029971286139
 20
227.6732517742475
 30
0.0
 11
443.702997128614
 21
227.6732517742475
 31
0.0
  0
LINE
  5
2BD3
330
2
100
AcDbEntity
  8
0
100
AcDbLine
 10
443.5029971286139
 20
281.2212517742473
 30
0.0
 11
443.702997128614
 21
281.2212517742473
 31
0.0
  0
LINE
  5
2BD8
330
2
100
AcDbEntity
  8
0
100
AcDbLine
 10
598.8029971286139
 20
213.0549469288339
 30
0.0
 11
604.8029971286139
 21
223.4472517742474
 31
0.0
1001
ACAD
1000
ASC_BOUNDS
1002
{
1070
    16
1005
0
1005
0
1002
}
  0
LINE
  5
2BD9
330
2
100
AcDbEntity
  8
0
100
AcDbLine
 10
599.3029971286139
 20
213.9209723326185
 30
0.0
 11
593.8029971286139
 21
223.4472517742474
 31
0.0
1001
ACAD
1000
ASC_BOUNDS
1002
{
1070
    16
1005
0
1005
0
1002
}
  0
LINE
  5
2BDA
330
2
100
AcDbEntity
  8
0
100
AcDbLine
 10
635.8029971286139
 20
213.0549469288344
 30
0.0
 11
629.8029971286139
 21
223.4472517742474
 31
0.0
1001
ACAD
1000
ASC_BOUNDS
1002
{
1070
    16
1005
0
1005
0
1002
}
  0
LINE
  5
2BDB
330
2
100
AcDbEntity
  8
0
100
AcDbLine
 10
562.8029971286139
 20
213.0549469288339
 30
0.0
 11
568.8029971286139
 21
223.4472517742474
 31
0.0
1001
ACAD
1000
ASC_BOUNDS
1002
{
1070
    16
1005
0
1005
0
1002
}
  0
LINE
  5
2BDC
330
2
100
AcDbEntity
  8
MITTE
 48
10.0
100
AcDbLine
 10
581.3029971286139
 20
228.470856728783
 30
0.0
 11
581.3029971286139
 21
182.1553750618102
 31
0.0
  0
LINE
  5
2BDD
330
2
100
AcDbEntity
  8
MITTE
 48
10.0
100
AcDbLine
 10
617.3029971286139
 20
228.470856728783
 30
0.0
 11
617.3029971286139
 21
183.3290537467244
 31
0.0
  0
LINE
  5
2BDE
330
2
100
AcDbEntity
  8
0
100
AcDbLine
 10
599.8029971286139
 20
213.0549469288344
 30
0.0
 11
562.8029971286139
 21
213.0549469288339
 31
0.0
  0
LINE
  5
2BDF
330
2
100
AcDbEntity
  8
0
100
AcDbLine
 10
598.3029971286139
 20
191.4472517742474
 30
0.0
 11
564.3029971286138
 21
191.4472517742474
 31
0.0
  0
ARC
  5
2BE0
330
2
100
AcDbEntity
  8
0
100
AcDbCircle
 10
581.3029971286139
 20
219.7972517742473
 30
0.0
 40
28.35000000000002
100
AcDbArc
 50
255.0842201524099
 51
284.91577984759
  0
ARC
  5
2BE1
330
2
100
AcDbEntity
  8
0
100
AcDbCircle
 10
581.3029971286139
 20
184.7773380137469
 30
0.0
 40
28.35000000000002
100
AcDbArc
 50
75.08422015240994
 51
104.91577984759
  0
LINE
  5
2BE2
330
2
100
AcDbEntity
  8
0
100
AcDbLine
 10
562.8029971286139
 20
192.313277178032
 30
0.0
 11
562.8029971286139
 21
213.0549469288339
 31
0.0
1001
ACAD
1000
ASC_BOUNDS
1002
{
1070
    16
1005
0
1005
0
1002
}
  0
LINE
  5
2BE3
330
2
100
AcDbEntity
  8
0
100
AcDbLine
 10
570.2291951441099
 20
192.4024986269748
 30
0.0
 11
570.2291951441099
 21
212.1720911610193
 31
0.0
  0
LINE
  5
2BE4
330
2
100
AcDbEntity
  8
0
100
AcDbLine
 10
570.2291951441099
 20
192.4024986269748
 30
0.0
 11
570.2291951441099
 21
212.1720911610196
 31
0.0
  0
LINE
  5
2BE5
330
2
100
AcDbEntity
  8
0
100
AcDbLine
 10
574.0057373689506
 20
192.4024986269748
 30
0.0
 11
574.0057373689506
 21
212.1720911610193
 31
0.0
  0
ARC
  5
2BE6
330
2
100
AcDbEntity
  8
0
100
AcDbCircle
 10
566.5805652642784
 20
199.3665321966684
 30
0.0
 40
7.861950366150809
100
AcDbArc
 50
241.2827599101505
 51
297.6511578198469
  0
LINE
  5
2BE7
330
2
100
AcDbEntity
  8
0
100
AcDbLine
 10
564.3029971286138
 20
191.4472517742474
 30
0.0
 11
562.8029971286139
 21
192.313277178032
 31
0.0
1001
ACAD
1000
ASC_BOUNDS
1002
{
1070
    16
1005
0
1005
0
1002
}
  0
LINE
  5
2BE8
330
2
100
AcDbEntity
  8
0
100
AcDbLine
 10
574.0057373689506
 20
192.4024986269748
 30
0.0
 11
570.2291951441099
 21
192.4024986269748
 31
0.0
  0
ARC
  5
2BE9
330
2
100
AcDbEntity
  8
0
100
AcDbCircle
 10
566.5805652642784
 20
205.2080575913258
 30
0.0
 40
7.861950366150809
100
AcDbArc
 50
62.34884218015303
 51
118.7172400898494
  0
LINE
  5
2BEA
330
2
100
AcDbEntity
  8
0
100
AcDbLine
 10
574.0057373689506
 20
212.1720911610193
 30
0.0
 11
570.2291951441099
 21
212.1720911610193
 31
0.0
  0
LINE
  5
2BEC
330
2
100
AcDbEntity
  8
0
100
AcDbLine
 10
610.0057373689505
 20
212.1720911610193
 30
0.0
 11
606.22919514411
 21
212.1720911610193
 31
0.0
  0
LINE
  5
2BED
330
2
100
AcDbEntity
  8
0
100
AcDbLine
 10
610.0057373689505
 20
192.4024986269748
 30
0.0
 11
606.22919514411
 21
192.4024986269748
 31
0.0
  0
LINE
  5
2BEE
330
2
100
AcDbEntity
  8
0
100
AcDbLine
 10
634.3029971286139
 20
191.4472517742474
 30
0.0
 11
600.3029971286139
 21
191.4472517742474
 31
0.0
  0
LINE
  5
2BEF
330
2
100
AcDbEntity
  8
0
100
AcDbLine
 10
635.8029971286139
 20
213.0549469288344
 30
0.0
 11
598.8029971286139
 21
213.0549469288339
 31
0.0
  0
LINE
  5
2BF0
330
2
100
AcDbEntity
  8
0
100
AcDbLine
 10
598.8029971286139
 20
192.313277178032
 30
0.0
 11
598.8029971286139
 21
213.0549469288339
 31
0.0
1001
ACAD
1000
ASC_BOUNDS
1002
{
1070
    16
1005
0
1005
0
1002
}
  0
LINE
  5
2BF1
330
2
100
AcDbEntity
  8
0
100
AcDbLine
 10
588.6002568882772
 20
192.4024986269748
 30
0.0
 11
588.6002568882772
 21
212.1720911610193
 31
0.0
  0
LINE
  5
2BF2
330
2
100
AcDbEntity
  8
0
100
AcDbLine
 10
592.3767991131178
 20
192.4024986269748
 30
0.0
 11
592.3767991131178
 21
212.1720911610193
 31
0.0
  0
LINE
  5
2BF3
330
2
100
AcDbEntity
  8
0
100
AcDbLine
 10
606.22919514411
 20
192.4024986269748
 30
0.0
 11
606.22919514411
 21
212.1720911610196
 31
0.0
  0
LINE
  5
2BF4
330
2
100
AcDbEntity
  8
0
100
AcDbLine
 10
606.22919514411
 20
192.4024986269748
 30
0.0
 11
606.22919514411
 21
212.1720911610193
 31
0.0
  0
ARC
  5
2BF5
330
2
100
AcDbEntity
  8
0
100
AcDbCircle
 10
596.0254289929493
 20
199.3665321966684
 30
0.0
 40
7.861950366150809
100
AcDbArc
 50
242.348842180153
 51
293.1087487042749
  0
LINE
  5
2BF6
330
2
100
AcDbEntity
  8
0
100
AcDbLine
 10
588.6002568882772
 20
192.4024986269748
 30
0.0
 11
592.3767991131178
 21
192.4024986269748
 31
0.0
  0
ARC
  5
2BF7
330
2
100
AcDbEntity
  8
0
100
AcDbCircle
 10
602.5805652642784
 20
199.3665321966684
 30
0.0
 40
7.861950366150809
100
AcDbArc
 50
241.2827599101505
 51
297.6511578198469
  0
LINE
  5
2BF8
330
2
100
AcDbEntity
  8
0
100
AcDbLine
 10
598.3029971286139
 20
191.4472517742474
 30
0.0
 11
599.3029971286139
 21
192.0246020434369
 31
0.0
1001
ACAD
1000
ASC_BOUNDS
1002
{
1070
    16
1005
0
1005
0
1002
}
  0
LINE
  5
2BF9
330
2
100
AcDbEntity
  8
0
100
AcDbLine
 10
600.3029971286139
 20
191.4472517742474
 30
0.0
 11
598.8029971286139
 21
192.313277178032
 31
0.0
1001
ACAD
1000
ASC_BOUNDS
1002
{
1070
    16
1005
0
1005
0
1002
}
  0
ARC
  5
2BFA
330
2
100
AcDbEntity
  8
0
100
AcDbCircle
 10
596.0254289929493
 20
205.2080575913258
 30
0.0
 40
7.861950366150809
100
AcDbArc
 50
69.31116783272692
 51
117.651157819847
  0
LINE
  5
2BFB
330
2
100
AcDbEntity
  8
0
100
AcDbLine
 10
588.6002568882772
 20
212.1720911610193
 30
0.0
 11
592.3767991131178
 21
212.1720911610193
 31
0.0
  0
ARC
  5
2BFC
330
2
100
AcDbEntity
  8
0
100
AcDbCircle
 10
602.5805652642784
 20
205.2080575913258
 30
0.0
 40
7.861950366150809
100
AcDbArc
 50
62.34884218015303
 51
118.7172400898494
  0
LINE
  5
2BFD
330
2
100
AcDbEntity
  8
0
100
AcDbLine
 10
635.8029971286139
 20
192.313277178032
 30
0.0
 11
635.8029971286139
 21
213.0549469288344
 31
0.0
1001
ACAD
1000
ASC_BOUNDS
1002
{
1070
    16
1005
0
1005
0
1002
}
  0
LINE
  5
2BFE
330
2
100
AcDbEntity
  8
0
100
AcDbLine
 10
628.3767991131178
 20
192.4024986269748
 30
0.0
 11
628.3767991131178
 21
212.1720911610193
 31
0.0
  0
LINE
  5
2BFF
330
2
100
AcDbEntity
  8
0
100
AcDbLine
 10
624.6002568882772
 20
192.4024986269748
 30
0.0
 11
624.6002568882772
 21
212.1720911610193
 31
0.0
  0
LINE
  5
2C00
330
2
100
AcDbEntity
  8
0
100
AcDbLine
 10
610.0057373689505
 20
192.4024986269748
 30
0.0
 11
610.0057373689505
 21
212.1720911610193
 31
0.0
  0
LINE
  5
2C01
330
2
100
AcDbEntity
  8
0
100
AcDbLine
 10
624.6002568882772
 20
192.4024986269748
 30
0.0
 11
628.3767991131178
 21
192.4024986269748
 31
0.0
  0
ARC
  5
2C02
330
2
100
AcDbEntity
  8
0
100
AcDbCircle
 10
617.3029971286139
 20
219.7972517742473
 30
0.0
 40
28.35000000000002
100
AcDbArc
 50
255.0842201524099
 51
284.91577984759
  0
LINE
  5
2C03
330
2
100
AcDbEntity
  8
0
100
AcDbLine
 10
634.3029971286139
 20
191.4472517742474
 30
0.0
 11
635.8029971286139
 21
192.313277178032
 31
0.0
1001
ACAD
1000
ASC_BOUNDS
1002
{
1070
    16
1005
0
1005
0
1002
}
  0
ARC
  5
2C04
330
2
100
AcDbEntity
  8
0
100
AcDbCircle
 10
632.0254289929494
 20
199.3665321966684
 30
0.0
 40
7.861950366150809
100
AcDbArc
 50
242.348842180153
 51
298.7172400898495
  0
LINE
  5
2C05
330
2
100
AcDbEntity
  8
0
100
AcDbLine
 10
624.6002568882772
 20
212.1720911610193
 30
0.0
 11
628.3767991131178
 21
212.1720911610193
 31
0.0
  0
ARC
  5
2C06
330
2
100
AcDbEntity
  8
0
100
AcDbCircle
 10
617.3029971286139
 20
184.7773380137469
 30
0.0
 40
28.35000000000002
100
AcDbArc
 50
75.08422015240994
 51
104.91577984759
  0
ARC
  5
2C07
330
2
100
AcDbEntity
  8
0
100
AcDbCircle
 10
632.0254289929494
 20
205.2080575913258
 30
0.0
 40
7.861950366150809
100
AcDbArc
 50
61.28275991015053
 51
117.651157819847
  0
LINE
  5
2C08
330
2
100
AcDbEntity
  8
0
100
AcDbLine
 10
538.702997128614
 20
285.4472517742475
 30
0.0
 11
538.702997128614
 21
223.4472517742474
 31
0.0
  0
LINE
  5
2C09
330
2
100
AcDbEntity
  8
0
100
AcDbLine
 10
538.9029971286141
 20
285.1793025818163
 30
0.0
 11
538.9029971286141
 21
223.7152009666786
 31
0.0
  0
LINE
  5
2C0A
330
2
100
AcDbEntity
  8
0
100
AcDbLine
 10
539.902997128614
 20
285.4472517742475
 30
0.0
 11
539.902997128614
 21
223.4472517742474
 31
0.0
  0
LINE
  5
2C0B
330
2
100
AcDbEntity
  8
0
100
AcDbLine
 10
538.9029971286141
 20
223.7152009666786
 30
0.0
 11
539.902997128614
 21
223.4472517742474
 31
0.0
  0
LINE
  5
2C0C
330
2
100
AcDbEntity
  8
0
100
AcDbLine
 10
538.9029971286141
 20
227.6732517742475
 30
0.0
 11
538.702997128614
 21
227.6732517742473
 31
0.0
  0
LINE
  5
2C0D
330
2
100
AcDbEntity
  8
0
100
AcDbLine
 10
538.9029971286141
 20
281.2212517742473
 30
0.0
 11
538.702997128614
 21
281.2212517742473
 31
0.0
  0
LINE
  5
2C0E
330
2
100
AcDbEntity
  8
0
100
AcDbLine
 10
538.9029971286141
 20
285.1793025818163
 30
0.0
 11
539.902997128614
 21
285.4472517742475
 31
0.0
  0
LINE
  5
2C0F
330
2
100
AcDbEntity
  8
0
100
AcDbLine
 10
427.5029971286139
 20
324.4472517742474
 30
0.0
 11
407.502997128614
 21
324.4472517742474
 31
0.0
  0
LINE
  5
2C2A
330
2
100
AcDbEntity
  8
0
100
AcDbLine
 10
662.9029971286139
 20
283.4472517742474
 30
0.0
 11
662.9029971286139
 21
225.4472517742474
 31
0.0
  0
LINE
  5
2C2B
330
2
100
AcDbEntity
  8
0
100
AcDbLine
 10
660.902997128614
 20
285.4472517742475
 30
0.0
 11
660.902997128614
 21
223.4472517742474
 31
0.0
  0
ARC
  5
2C2C
330
2
100
AcDbEntity
  8
0
100
AcDbCircle
 10
677.3029971286139
 20
243.0472517742473
 30
0.0
 40
1.6
100
AcDbArc
 50
270.0
 51
0.0
  0
ARC
  5
2C2F
330
2
100
AcDbEntity
  8
0
100
AcDbCircle
 10
677.3029971286139
 20
265.8472517742475
 30
0.0
 40
1.6
100
AcDbArc
 50
0.0
 51
90.0
  0
LINE
  5
2C30
330
2
100
AcDbEntity
  8
0
100
AcDbLine
 10
660.902997128614
 20
223.4472517742474
 30
0.0
 11
662.9029971286139
 21
225.4472517742474
 31
0.0
  0
LINE
  5
2C31
330
2
100
AcDbEntity
  8
0
100
AcDbLine
 10
662.9029971286138
 20
241.4472517742474
 30
0.0
 11
677.3029971286139
 21
241.4472517742474
 31
0.0
  0
LINE
  5
2C32
330
2
100
AcDbEntity
  8
0
100
AcDbLine
 10
662.9029971286138
 20
267.4472517742474
 30
0.0
 11
677.3029971286139
 21
267.4472517742474
 31
0.0
  0
LINE
  5
2C33
330
2
100
AcDbEntity
  8
0
100
AcDbLine
 10
678.9029971286139
 20
265.8472517742475
 30
0.0
 11
678.9029971286139
 21
243.0472517742473
 31
0.0
  0
LINE
  5
2C36
330
2
100
AcDbEntity
  8
0
100
AcDbLine
 10
660.902997128614
 20
285.4472517742475
 30
0.0
 11
662.9029971286139
 21
283.4472517742474
 31
0.0
  0
LINE
  5
2C74
330
2
100
AcDbEntity
  8
MITTE
 48
12.0
100
AcDbLine
 10
757.0541826751003
 20
330.0442575658508
 30
0.0
 11
757.0541826751003
 21
179.9353694994688
 31
0.0
  0
ARC
  5
2C75
330
2
100
AcDbEntity
  8
0
100
AcDbCircle
 10
757.0541826751003
 20
309.4472517742474
 30
0.0
 40
15.0
100
AcDbArc
 50
24.7198511829076
 51
155.2801488170924
  0
LINE
  5
2C77
330
2
100
AcDbEntity
  8
0
100
AcDbLine
 10
791.5719897935212
 20
238.5563426833396
 30
0.0
 11
770.6796328534242
 21
193.1745245015206
 31
0.0
  0
LINE
  5
2C78
330
2
100
AcDbEntity
  8
0
100
AcDbLine
 10
722.5363755566793
 20
238.5563426833398
 30
0.0
 11
743.4287324967761
 21
193.1745245015206
 31
0.0
  0
LINE
  5
2C79
330
2
100
AcDbEntity
  8
MITTE
 48
4.0
100
AcDbLine
 10
749.0935436630095
 20
199.4472517742474
 30
0.0
 11
766.0491384755655
 21
199.4472517742474
 31
0.0
  0
CIRCLE
  5
2C7A
330
2
100
AcDbEntity
  8
0
100
AcDbCircle
 10
757.0541826751003
 20
199.4472517742474
 30
0.0
 40
7.0
  0
ARC
  5
2C7C
330
2
100
AcDbEntity
  8
0
100
AcDbCircle
 10
757.0541826751003
 20
199.4472517742474
 30
0.0
 40
15.0
100
AcDbArc
 50
204.7198511829017
 51
335.2801488170984
  0
LINE
  5
2C7D
330
2
100
AcDbEntity
  8
MITTE
 48
4.0
100
AcDbLine
 10
749.0935436630095
 20
309.4472517742474
 30
0.0
 11
766.3308846106786
 21
309.4472517742474
 31
0.0
  0
CIRCLE
  5
2C7E
330
2
100
AcDbEntity
  8
0
100
AcDbCircle
 10
757.0541826751003
 20
254.4472517742474
 30
0.0
 40
7.000000000000085
  0
CIRCLE
  5
2C7F
330
2
100
AcDbEntity
  8
0
100
AcDbCircle
 10
757.0541826751003
 20
254.4472517742474
 30
0.0
 40
9.0
  0
CIRCLE
  5
2C80
330
2
100
AcDbEntity
  8
0
100
AcDbCircle
 10
757.0541826751003
 20
254.4472517742474
 30
0.0
 40
30.0
  0
LINE
  5
2C81
330
2
100
AcDbEntity
  8
MITTE
 48
12.0
100
AcDbLine
 10
716.6213823010721
 20
254.4472517742474
 30
0.0
 11
797.4576033204425
 21
254.4472517742474
 31
0.0
  0
CIRCLE
  5
2C82
330
2
100
AcDbEntity
  8
0
100
AcDbCircle
 10
757.0541826751003
 20
309.4472517742474
 30
0.0
 40
7.0
  0
LINE
  5
2C83
330
2
100
AcDbEntity
  8
0
100
AcDbLine
 10
722.5363755566793
 20
270.338160865155
 30
0.0
 11
743.4287324967761
 21
315.719979046974
 31
0.0
  0
ARC
  5
2C84
330
2
100
AcDbEntity
  8
0
100
AcDbCircle
 10
757.0541826751003
 20
254.4472517742474
 30
0.0
 40
38.0
100
AcDbArc
 50
155.2801488170924
 51
204.7198511829076
  0
LINE
  5
2C85
330
2
100
AcDbEntity
  8
0
100
AcDbLine
 10
760.0541826751002
 20
265.8472517742475
 30
0.0
 11
760.0541826751002
 21
262.9325331484861
 31
0.0
  0
LINE
  5
2C86
330
2
100
AcDbEntity
  8
0
100
AcDbLine
 10
754.0541826751002
 20
265.8472517742475
 30
0.0
 11
754.0541826751002
 21
262.9325331484861
 31
0.0
  0
LINE
  5
2C87
330
2
100
AcDbEntity
  8
0
100
AcDbLine
 10
760.0541826751002
 20
265.8472517742475
 30
0.0
 11
754.0541826751002
 21
265.8472517742475
 31
0.0
  0
LINE
  5
2C88
330
2
100
AcDbEntity
  8
0
100
AcDbLine
 10
791.5719897935212
 20
270.338160865155
 30
0.0
 11
770.6796328534244
 21
315.719979046974
 31
0.0
  0
ARC
  5
2C89
330
2
100
AcDbEntity
  8
0
100
AcDbCircle
 10
757.0541826751003
 20
254.4472517742474
 30
0.0
 40
38.0
100
AcDbArc
 50
335.2801488170924
 51
24.7198511829076
  0
LINE
  5
3171
330
2
100
AcDbEntity
  8
MITTE
 48
12.0
100
AcDbLine
 10
327.9693639185818
 20
254.4472517742472
 30
0.0
 11
255.8078364836045
 21
254.4472517742472
 31
0.0
  0
CIRCLE
  5
3172
330
2
100
AcDbEntity
  8
0
100
AcDbCircle
 10
291.3745749434147
 20
254.4472517742472
 30
0.0
 40
31.0
  0
LINE
  5
3173
330
2
100
AcDbEntity
  8
MITTE
 48
12.0
100
AcDbLine
 10
295.8320828491301
 20
227.810234877094
 30
0.0
 11
302.3312593669984
 21
188.9726874434561
 31
0.0
  0
LINE
  5
3174
330
2
100
AcDbEntity
  8
MITTE
 48
12.0
100
AcDbLine
 10
286.9809596895789
 20
228.1920423093454
 30
0.0
 11
280.4178905198309
 21
188.9726874434561
 31
0.0
  0
LINE
  5
3177
330
2
100
AcDbEntity
  8
0
100
AcDbLine
 10
291.3707906264544
 20
192.1589454597633
 30
0.0
 11
284.7471610953267
 21
191.0505300124357
 31
0.0
  0
ARC
  5
3178
330
2
100
AcDbEntity
  8
0
100
AcDbCircle
 10
285.6864354801926
 20
199.2371094355812
 30
0.0
 40
7.861950366150809
100
AcDbArc
 50
250.7827599101538
 51
300.2693063303286
  0
ARC
  5
3179
330
2
100
AcDbEntity
  8
0
100
AcDbCircle
 10
280.1340740929234
 20
187.2766673535018
 30
0.0
 40
28.35000000000002
100
AcDbArc
 50
65.58422015240722
 51
95.41577984759319
  0
ARC
  5
317A
330
2
100
AcDbEntity
  8
0
100
AcDbCircle
 10
285.9140270165415
 20
221.8163040625593
 30
0.0
 40
28.35000000000002
100
AcDbArc
 50
245.5842201524072
 51
275.4157798475932
  0
LINE
  5
317B
330
2
100
AcDbEntity
  8
0
100
AcDbLine
 10
264.4680721642583
 20
196.6609165586101
 30
0.0
 11
298.001782616524
 21
191.0492979593471
 31
0.0
  0
LINE
  5
317C
330
2
100
AcDbEntity
  8
0
100
AcDbLine
 10
266.5549421153844
 20
218.219846580776
 30
0.0
 11
303.0475093722619
 21
212.1130851639307
 31
0.0
  0
LINE
  5
317F
330
2
100
AcDbEntity
  8
0
100
AcDbLine
 10
266.5549421153844
 20
218.219846580776
 30
0.0
 11
274.1878807587172
 21
227.4793415814286
 31
0.0
1001
ACAD
1000
ASC_BOUNDS
1002
{
1070
    16
1005
0
1005
0
1002
}
  0
ARC
  5
3180
330
2
100
AcDbEntity
  8
0
100
AcDbCircle
 10
268.9855928778065
 20
209.8570940335683
 30
0.0
 40
7.861950366150809
100
AcDbArc
 50
52.84884218015643
 51
109.2172400898462
  0
ARC
  5
3181
330
2
100
AcDbEntity
  8
0
100
AcDbCircle
 10
268.0214630968442
 20
204.0956816458038
 30
0.0
 40
7.861950366150809
100
AcDbArc
 50
231.7827599101544
 51
288.1511578198468
  0
LINE
  5
3182
330
2
100
AcDbEntity
  8
0
100
AcDbLine
 10
263.1315791814616
 20
197.7626363537192
 30
0.0
 11
266.5549421153844
 21
218.219846580776
 31
0.0
1001
ACAD
1000
ASC_BOUNDS
1002
{
1070
    16
1005
0
1005
0
1002
}
  0
LINE
  5
3183
330
2
100
AcDbEntity
  8
0
100
AcDbLine
 10
264.4680721642583
 20
196.6609165586101
 30
0.0
 11
263.1315791814616
 21
197.7626363537192
 31
0.0
1001
ACAD
1000
ASC_BOUNDS
1002
{
1070
    16
1005
0
1005
0
1002
}
  0
LINE
  5
3184
330
2
100
AcDbEntity
  8
0
100
AcDbLine
 10
270.4706571448494
 20
196.6249579810551
 30
0.0
 11
273.7335810614343
 21
216.1234224456412
 31
0.0
  0
LINE
  5
3185
330
2
100
AcDbEntity
  8
0
100
AcDbLine
 10
274.1954063648068
 20
196.0016487284133
 30
0.0
 11
277.4583302813919
 21
215.5001131929994
 31
0.0
  0
LINE
  5
3186
330
2
100
AcDbEntity
  8
0
100
AcDbLine
 10
274.195406364807
 20
196.0016487284133
 30
0.0
 11
270.4706571448494
 21
196.6249579810551
 31
0.0
  0
LINE
  5
3187
330
2
100
AcDbEntity
  8
0
100
AcDbLine
 10
283.1247972735116
 20
191.6571069899628
 30
0.0
 11
282.8008289752013
 21
193.5930652022118
 31
0.0
1001
ACAD
1000
ASC_BOUNDS
1002
{
1070
    16
1005
0
1005
0
1002
}
  0
LINE
  5
3188
330
2
100
AcDbEntity
  8
0
100
AcDbLine
 10
284.7471610953267
 20
191.0505300124357
 30
0.0
 11
283.1247972735116
 21
191.6571069899628
 31
0.0
1001
ACAD
1000
ASC_BOUNDS
1002
{
1070
    16
1005
0
1005
0
1002
}
  0
LINE
  5
3189
330
2
100
AcDbEntity
  8
0
100
AcDbLine
 10
277.4583302813919
 20
215.5001131929994
 30
0.0
 11
273.7335810614343
 21
216.1234224456412
 31
0.0
  0
LINE
  5
318A
330
2
100
AcDbEntity
  8
0
100
AcDbLine
 10
274.1878807587172
 20
227.4793415814286
 30
0.0
 11
276.9236196621216
 21
227.0215358955673
 31
0.0
  0
LINE
  5
3190
330
2
100
AcDbEntity
  8
0
100
AcDbLine
 10
305.2906134304588
 20
215.501345246088
 30
0.0
 11
309.0153626504164
 21
216.1246544987296
 31
0.0
  0
LINE
  5
3191
330
2
100
AcDbEntity
  8
0
100
AcDbLine
 10
308.5610629531334
 20
227.4805736345172
 30
0.0
 11
305.8290518368751
 21
227.0233917662831
 31
0.0
  0
ARC
  5
3192
330
2
100
AcDbEntity
  8
0
100
AcDbCircle
 10
296.8349166953092
 20
221.8175361156477
 30
0.0
 40
28.35000000000002
100
AcDbArc
 50
276.3208831749367
 51
294.4157798475928
  0
LINE
  5
3193
330
2
100
AcDbEntity
  8
0
100
AcDbLine
 10
308.5535373470439
 20
196.002880781502
 30
0.0
 11
305.2906134304588
 21
215.501345246088
 31
0.0
  0
LINE
  5
3194
330
2
100
AcDbEntity
  8
0
100
AcDbLine
 10
318.2808715475922
 20
196.6621486116985
 30
0.0
 11
299.9485389665488
 21
193.5943682470385
 31
0.0
  0
LINE
  5
3195
330
2
100
AcDbEntity
  8
0
100
AcDbLine
 10
316.1940015964662
 20
218.2210786338647
 30
0.0
 11
301.6723951838983
 21
215.790995128732
 31
0.0
  0
LINE
  5
3196
330
2
100
AcDbEntity
  8
0
100
AcDbLine
 10
303.0475093722619
 20
212.1130851639307
 30
0.0
 11
298.845020797148
 21
223.3531514349115
 31
0.0
1001
ACAD
1000
ASC_BOUNDS
1002
{
1070
    16
1005
0
1005
0
1002
}
  0
ARC
  5
3197
330
2
100
AcDbEntity
  8
0
100
AcDbCircle
 10
298.0266380126206
 20
204.9972897702573
 30
0.0
 40
7.861950366150809
100
AcDbArc
 50
51.78275991015439
 51
108.1511578198468
  0
ARC
  5
3198
330
2
100
AcDbEntity
  8
0
100
AcDbCircle
 10
297.0625082316581
 20
199.2358773824928
 30
0.0
 40
7.861950366150809
100
AcDbArc
 50
232.8488421801564
 51
289.2172400898462
  0
LINE
  5
3199
330
2
100
AcDbEntity
  8
0
100
AcDbLine
 10
288.5897708280729
 20
193.5928582230615
 30
0.0
 11
291.852694744658
 21
213.0913226876475
 31
0.0
  0
LINE
  5
319A
330
2
100
AcDbEntity
  8
0
100
AcDbLine
 10
288.5897708280727
 20
193.5928582230615
 30
0.0
 11
292.3145200480306
 21
192.9695489704199
 31
0.0
  0
LINE
  5
319B
330
2
100
AcDbEntity
  8
0
100
AcDbLine
 10
292.3145200480306
 20
192.9695489704199
 30
0.0
 11
295.5774439646154
 21
212.468013435006
 31
0.0
  0
LINE
  5
319C
330
2
100
AcDbEntity
  8
0
100
AcDbLine
 10
292.3145200480306
 20
192.9695489704199
 30
0.0
 11
295.5774439646154
 21
212.4680134350058
 31
0.0
  0
LINE
  5
319D
330
2
100
AcDbEntity
  8
0
100
AcDbLine
 10
291.8526947446578
 20
213.0913226876475
 30
0.0
 11
295.5774439646154
 21
212.468013435006
 31
0.0
  0
LINE
  5
319E
330
2
100
AcDbEntity
  8
0
100
AcDbLine
 10
299.624146438339
 20
191.6558749368741
 30
0.0
 11
303.0475093722619
 21
212.1130851639307
 31
0.0
1001
ACAD
1000
ASC_BOUNDS
1002
{
1070
    16
1005
0
1005
0
1002
}
  0
LINE
  5
319F
330
2
100
AcDbEntity
  8
0
100
AcDbLine
 10
298.001782616524
 20
191.0492979593471
 30
0.0
 11
299.624146438339
 21
191.6558749368741
 31
0.0
1001
ACAD
1000
ASC_BOUNDS
1002
{
1070
    16
1005
0
1005
0
1002
}
  0
LINE
  5
31A0
330
2
100
AcDbEntity
  8
0
100
AcDbLine
 10
296.1092818937439
 20
223.8109571207726
 30
0.0
 11
298.845020797148
 21
223.3531514349115
 31
0.0
  0
ARC
  5
31A1
330
2
100
AcDbEntity
  8
0
100
AcDbCircle
 10
302.6148696189273
 20
187.2778994065904
 30
0.0
 40
28.35000000000002
100
AcDbArc
 50
84.58422015240678
 51
91.77155881040951
  0
LINE
  5
31A2
330
2
100
AcDbEntity
  8
0
100
AcDbLine
 10
319.6173645303891
 20
197.7638684068079
 30
0.0
 11
316.1940015964662
 21
218.2210786338647
 31
0.0
1001
ACAD
1000
ASC_BOUNDS
1002
{
1070
    16
1005
0
1005
0
1002
}
  0
LINE
  5
31A3
330
2
100
AcDbEntity
  8
0
100
AcDbLine
 10
312.2782865670012
 20
196.6261900341437
 30
0.0
 11
309.0153626504164
 21
216.1246544987296
 31
0.0
  0
ARC
  5
31A4
330
2
100
AcDbEntity
  8
0
100
AcDbCircle
 10
314.7274806150065
 20
204.0969136988922
 30
0.0
 40
7.861950366150809
100
AcDbArc
 50
251.8488421801532
 51
308.2172400898457
  0
LINE
  5
31A5
330
2
100
AcDbEntity
  8
0
100
AcDbLine
 10
308.5535373470436
 20
196.002880781502
 30
0.0
 11
312.2782865670012
 21
196.6261900341437
 31
0.0
  0
LINE
  5
31A6
330
2
100
AcDbEntity
  8
0
100
AcDbLine
 10
318.2808715475924
 20
196.6621486116987
 30
0.0
 11
319.6173645303891
 21
197.7638684068079
 31
0.0
1001
ACAD
1000
ASC_BOUNDS
1002
{
1070
    16
1005
0
1005
0
1002
}
  0
LINE
  5
31A7
330
2
100
AcDbEntity
  8
0
100
AcDbLine
 10
316.1940015964662
 20
218.2210786338647
 30
0.0
 11
308.5610629531334
 21
227.4805736345172
 31
0.0
1001
ACAD
1000
ASC_BOUNDS
1002
{
1070
    16
1005
0
1005
0
1002
}
  0
ARC
  5
31A8
330
2
100
AcDbEntity
  8
0
100
AcDbCircle
 10
313.7633508340441
 20
209.8583260866569
 30
0.0
 40
7.861950366150809
100
AcDbArc
 50
70.78275991015378
 51
127.1511578198435
  0
CIRCLE
  5
32D1
330
2
100
AcDbEntity
  8
0
 48
10.0
100
AcDbCircle
 10
291.3745749434147
 20
254.447251774247
 30
0.0
 40
13.00000000000045
  0
LINE
  5
32D3
330
2
100
AcDbEntity
  8
0
100
AcDbLine
 10
277.1186944142016
 20
194.5439284248011
 30
0.0
 11
277.7491247650905
 21
193.1745245015204
 31
0.0
  0
LINE
  5
32D4
330
2
100
AcDbEntity
  8
0
100
AcDbLine
 10
305.6310872242296
 20
194.54530069871
 30
0.0
 11
305.0000251217389
 21
193.1745245015204
 31
0.0
  0
ENDSEC
  0
SECTION
  2
OBJECTS
  0
DICTIONARY
  5
1A
330
0
100
AcDbDictionary
281
     1
  3
ACAD_COLOR
350
442B
  3
ACAD_GROUP
350
18
  3
ACAD_LAYOUT
350
6C2
  3
ACAD_MATERIAL
350
4416
  3
ACAD_MLINESTYLE
350
19
  3
ACAD_PLOTSETTINGS
350
6C3
  3
ACAD_PLOTSTYLENAME
350
6C0
  3
ACAD_TABLESTYLE
350
442C
  3
ACAD_VISUALSTYLE
350
441A
  3
ACDBVARIABLEDICTIONARY
350
25F
  3
ACMDICTIONARY
350
265
  3
AMG
350
6CC
  3
AMGSNAPSETTINGS
350
72B
  0
DICTIONARY
  5
28B
330
2
100
AcDbDictionary
280
     1
281
     1
  0
DICTIONARY
  5
442B
102
{ACAD_REACTORS
330
1A
102
}
330
1A
100
AcDbDictionary
281
     1
  0
DICTIONARY
  5
18
102
{ACAD_REACTORS
330
1A
102
}
330
1A
100
AcDbDictionary
281
     1
  0
DICTIONARY
  5
6C2
102
{ACAD_REACTORS
330
1A
102
}
330
1A
100
AcDbDictionary
281
     1
  3
Layout1
350
6C5
  3
Model
350
6C4
  0
DICTIONARY
  5
4416
102
{ACAD_REACTORS
330
1A
102
}
330
1A
100
AcDbDictionary
281
     1
  3
ByBlock
350
4418
  3
ByLayer
350
4417
  3
Global
350
4419
  0
DICTIONARY
  5
19
102
{ACAD_REACTORS
330
1A
102
}
330
1A
100
AcDbDictionary
281
     1
  3
STANDARD
350
1B
  0
DICTIONARY
  5
6C3
102
{ACAD_REACTORS
330
1A
102
}
330
1A
100
AcDbDictionary
281
     1
  0
ACDBDICTIONARYWDFLT
  5
6C0
102
{ACAD_REACTORS
330
1A
102
}
330
1A
100
AcDbDictionary
281
     1
  3
Normal
350
6C1
100
AcDbDictionaryWithDefault
340
6C1
  0
DICTIONARY
  5
442C
102
{ACAD_REACTORS
330
1A
102
}
330
1A
100
AcDbDictionary
281
     1
  3
Standard
350
442D
  0
DICTIONARY
  5
441A
102
{ACAD_REACTORS
330
1A
102
}
330
1A
100
AcDbDictionary
281
     1
  3
2dWireframe
350
4420
  3
3D Hidden
350
4422
  3
3dWireframe
350
4421
  3
Basic
350
441F
  3
Brighten
350
4426
  3
ColorChange
350
442A
  3
Conceptual
350
4423
  3
Dim
350
4425
  3
Facepattern
350
4429
  3
Flat
350
441B
  3
FlatWithEdges
350
441C
  3
Gouraud
350
441D
  3
GouraudWithEdges
350
441E
  3
Linepattern
350
4428
  3
Realistic
350
4424
  3
Thicken
350
4427
  0
DICTIONARY
  5
25F
102
{ACAD_REACTORS
330
1A
102
}
330
1A
100
AcDbDictionary
281
     1
  3
CTABLESTYLE
350
4505
  3
INDEXCTL
350
260
  3
SORTENTS
350
4D0
  0
DICTIONARY
  5
265
102
{ACAD_REACTORS
330
1A
102
}
330
1A
100
AcDbDictionary
281
     1
  3
ACMSTDDICTIONARY
350
266
  3
AMDTSECTSYM_ARROWCOLOR
350
4488
  0
DICTIONARY
  5
6CC
102
{ACAD_REACTORS
330
1A
102
}
330
1A
100
AcDbDictionary
281
     1
  0
DICTIONARY
  5
72B
102
{ACAD_REACTORS
330
1A
102
}
330
1A
100
AcDbDictionary
281
     1
  0
LAYOUT
  5
6C5
102
{ACAD_REACTORS
330
6C2
102
}
330
6C2
100
AcDbPlotSettings
  1

  2
Kein
  4

  6

 40
0.0
 41
0.0
 42
0.0
 43
0.0
 44
0.0
 45
0.0
 46
0.0
 47
0.0
 48
0.0
 49
0.0
140
0.0
141
0.0
142
1.0
143
1.0
 70
   688
 72
     0
 73
     0
 74
     5
  7
Test.ctb
 75
    16
147
1.0
 76
     0
 77
     2
 78
   300
148
0.0
149
0.0
100
AcDbLayout
  1
Layout1
 70
     0
 71
     1
 10
0.0
 20
0.0
 11
420.0
 21
297.0
 12
0.0
 22
0.0
 32
0.0
 14
1.000000000000000E+20
 24
1.000000000000000E+20
 34
1.000000000000000E+20
 15
-1.000000000000000E+20
 25
-1.000000000000000E+20
 35
-1.000000000000000E+20
146
0.0
 13
0.0
 23
0.0
 33
0.0
 16
1.0
 26
0.0
 36
0.0
 17
0.0
 27
1.0
 37
0.0
 76
     0
330
7
  0
LAYOUT
  5
6C4
102
{ACAD_REACTORS
330
6C2
102
}
330
6C2
100
AcDbPlotSettings
  1

  2
\\CAD-NT-02\HP LaserJet 6P/6MP - Standard
  4
A4
  6

 40
6.011333465576171
 41
4.233341693878173
 42
6.011322021484375
 43
4.23333740234375
 44
209.9733276367187
 45
296.9259948730469
 46
0.0
 47
0.0
 48
0.0
 49
0.0
140
0.0
141
0.0
142
1.0
143
4.870689102307727
 70
 28336
 72
     1
 73
     0
 74
     1
  7
Test.ctb
 75
     0
147
0.2053097578176774
 76
     0
 77
     2
 78
   300
148
-8.448374503076593
149
-30.34494058183554
100
AcDbLayout
  1
Model
 70
     1
 71
     0
 10
0.0
 20
0.0
 11
12.0
 21
9.0
 12
0.0
 22
0.0
 32
0.0
 14
0.0
 24
0.0
 34
0.0
 15
0.0
 25
0.0
 35
0.0
146
0.0
 13
0.0
 23
0.0
 33
0.0
 16
1.0
 26
0.0
 36
0.0
 17
0.0
 27
1.0
 37
0.0
 76
     0
330
2
331
4414
  0
MATERIAL
  5
4418
102
{ACAD_XDICTIONARY
360
4508
102
}
102
{ACAD_REACTORS
330
4416
102
}
330
4416
100
AcDbMaterial
  1
ByBlock
  0
MATERIAL
  5
4417
102
{ACAD_XDICTIONARY
360
4506
102
}
102
{ACAD_REACTORS
330
4416
102
}
330
4416
100
AcDbMaterial
  1
ByLayer
  0
MATERIAL
  5
4419
102
{ACAD_XDICTIONARY
360
450A
102
}
102
{ACAD_REACTORS
330
4416
102
}
330
4416
100
AcDbMaterial
  1
Global
  0
MLINESTYLE
  5
1B
102
{ACAD_REACTORS
330
19
102
}
330
19
100
AcDbMlineStyle
  2
STANDARD
 70
     0
  3

 62
     0
 51
90.0
 52
90.0
 71
     2
 49
0.5
 62
   256
  6
BYLAYER
 49
-0.5
 62
   256
  6
BYLAYER
  0
ACDBPLACEHOLDER
  5
6C1
102
{ACAD_REACTORS
330
6C0
102
}
330
6C0
  0
TABLESTYLE
  5
442D
102
{ACAD_XDICTIONARY
360
450C
102
}
102
{ACAD_REACTORS
330
442C
102
}
330
442C
100
AcDbTableStyle
  3
Standard
 70
     0
 71
     0
 40
0.06
 41
0.06
280
     0
281
     0
  7
STANDARD
140
0.18
170
     2
 62
     0
 63
     7
283
     0
274
    -2
284
     1
 64
     0
275
    -2
285
     1
 65
     0
276
    -2
286
     1
 66
     0
277
    -2
287
     1
 67
     0
278
    -2
288
     1
 68
     0
279
    -2
289
     1
 69
     0
  7
STANDARD
140
0.25
170
     5
 62
     0
 63
     7
283
     0
274
    -2
284
     1
 64
     0
275
    -2
285
     1
 65
     0
276
    -2
286
     1
 66
     0
277
    -2
287
     1
 67
     0
278
    -2
288
     1
 68
     0
279
    -2
289
     1
 69
     0
  7
STANDARD
140
0.18
170
     5
 62
     0
 63
     7
283
     0
274
    -2
284
     1
 64
     0
275
    -2
285
     1
 65
     0
276
    -2
286
     1
 66
     0
277
    -2
287
     1
 67
     0
278
    -2
288
     1
 68
     0
279
    -2
289
     1
 69
     0
  0
VISUALSTYLE
  5
4420
102
{ACAD_REACTORS
330
441A
102
}
330
441A
100
AcDbVisualStyle
  2
2dWireframe
 70
     4
 71
     0
 72
     2
 73
     0
 90
        0
 40
-0.6
 41
-30.0
 62
     5
 63
     7
421
 16777215
 74
     1
 91
        4
 64
     7
 65
   257
 75
     1
175
     1
 42
1.0
 92
        0
 66
   257
 43
1.0
 76
     1
 77
     6
 78
     2
 67
     7
 79
     5
170
     0
171
     0
290
     0
174
     0
 93
        1
 44
0.0
173
     0
291
     0
 45
0.0
1001
ACAD
1000
AcDbSavedByObjectVersion
1070
     0
  0
VISUALSTYLE
  5
4422
102
{ACAD_REACTORS
330
441A
102
}
330
441A
100
AcDbVisualStyle
  2
3D Hidden
 70
     6
 71
     1
 72
     2
 73
     2
 90
        0
 40
-0.6
 41
-30.0
 62
     5
 63
     7
421
 16777215
 74
     2
 91
        2
 64
     7
 65
   257
 75
     2
175
     1
 42
40.0
 92
        0
 66
   257
 43
1.0
 76
     1
 77
     6
 78
     2
 67
     7
 79
     3
170
     0
171
     0
290
     0
174
     0
 93
        1
 44
0.0
173
     0
291
     0
 45
0.0
1001
ACAD
1000
AcDbSavedByObjectVersion
1070
     0
  0
VISUALSTYLE
  5
4421
102
{ACAD_REACTORS
330
441A
102
}
330
441A
100
AcDbVisualStyle
  2
3dWireframe
 70
     5
 71
     0
 72
     2
 73
     0
 90
        0
 40
-0.6
 41
-30.0
 62
     5
 63
     7
421
 16777215
 74
     1
 91
        4
 64
     7
 65
   257
 75
     1
175
     1
 42
1.0
 92
        0
 66
   257
 43
1.0
 76
     1
 77
     6
 78
     2
 67
     7
 79
     5
170
     0
171
     0
290
     0
174
     0
 93
        1
 44
0.0
173
     0
291
     0
 45
0.0
1001
ACAD
1000
AcDbSavedByObjectVersion
1070
     0
  0
VISUALSTYLE
  5
441F
102
{ACAD_REACTORS
330
441A
102
}
330
441A
100
AcDbVisualStyle
  2
Basic
 70
     7
 71
     1
 72
     0
 73
     1
 90
        0
 40
-0.6
 41
-30.0
 62
     5
 63
     7
421
 16777215
 74
     0
 91
        4
 64
     7
 65
   257
 75
     1
175
     1
 42
1.0
 92
        8
 66
     7
 43
1.0
 76
     1
 77
     6
 78
     2
 67
     7
 79
     5
170
     0
171
     0
290
     0
174
     0
 93
        1
 44
0.0
173
     0
291
     1
 45
0.0
1001
ACAD
1000
AcDbSavedByObjectVersion
1070
     0
  0
VISUALSTYLE
  5
4426
102
{ACAD_REACTORS
330
441A
102
}
330
441A
100
AcDbVisualStyle
  2
Brighten
 70
    12
 71
     2
 72
     2
 73
     0
 90
        0
 40
-0.6
 41
-30.0
 62
     5
 63
     7
421
 16777215
 74
     1
 91
        4
 64
     7
 65
   257
 75
     1
175
     1
 42
1.0
 92
        8
 66
     7
 43
1.0
 76
     1
 77
     6
 78
     2
 67
     7
 79
     5
170
     0
171
     0
290
     0
174
     0
 93
        1
 44
50.0
173
     0
291
     1
 45
0.0
1001
ACAD
1000
AcDbSavedByObjectVersion
1070
     0
  0
VISUALSTYLE
  5
442A
102
{ACAD_REACTORS
330
441A
102
}
330
441A
100
AcDbVisualStyle
  2
ColorChange
 70
    16
 71
     2
 72
     2
 73
     3
 90
        0
 40
-0.6
 41
-30.0
 62
     5
 63
     8
421
  8421504
 74
     1
 91
        4
 64
     7
 65
   257
 75
     1
175
     1
 42
1.0
 92
        8
 66
     8
424
  8421504
 43
1.0
 76
     1
 77
     6
 78
     2
 67
     7
 79
     5
170
     0
171
     0
290
     0
174
     0
 93
        1
 44
0.0
173
     0
291
     1
 45
0.0
1001
ACAD
1000
AcDbSavedByObjectVersion
1070
     0
  0
VISUALSTYLE
  5
4423
102
{ACAD_REACTORS
330
441A
102
}
330
441A
100
AcDbVisualStyle
  2
Conceptual
 70
     9
 71
     3
 72
     2
 73
     0
 90
        0
 40
-0.6
 41
-30.0
 62
     5
 63
     7
421
 16777215
 74
     2
 91
        2
 64
     7
 65
   257
 75
     1
175
     1
 42
40.0
 92
        8
 66
     7
 43
1.0
 76
     1
 77
     6
 78
     2
 67
     7
 79
     3
170
     0
171
     0
290
     0
174
     0
 93
        1
 44
0.0
173
     0
291
     0
 45
0.0
1001
ACAD
1000
AcDbSavedByObjectVersion
1070
     0
  0
VISUALSTYLE
  5
4425
102
{ACAD_REACTORS
330
441A
102
}
330
441A
100
AcDbVisualStyle
  2
Dim
 70
    11
 71
     2
 72
     2
 73
     0
 90
        0
 40
-0.6
 41
-30.0
 62
     5
 63
     7
421
 16777215
 74
     1
 91
        4
 64
     7
 65
   257
 75
     1
175
     1
 42
1.0
 92
        8
 66
     7
 43
1.0
 76
     1
 77
     6
 78
     2
 67
     7
 79
     5
170
     0
171
     0
290
     0
174
     0
 93
        1
 44
-50.0
173
     0
291
     1
 45
0.0
1001
ACAD
1000
AcDbSavedByObjectVersion
1070
     0
  0
VISUALSTYLE
  5
4429
102
{ACAD_REACTORS
330
441A
102
}
330
441A
100
AcDbVisualStyle
  2
Facepattern
 70
    15
 71
     2
 72
     2
 73
     0
 90
        0
 40
-0.6
 41
-30.0
 62
     5
 63
     7
421
 16777215
 74
     1
 91
        4
 64
     7
 65
   257
 75
     1
175
     1
 42
1.0
 92
        8
 66
     7
 43
1.0
 76
     1
 77
     6
 78
     2
 67
     7
 79
     5
170
     0
171
     0
290
     0
174
     0
 93
        1
 44
0.0
173
     0
291
     1
 45
0.0
1001
ACAD
1000
AcDbSavedByObjectVersion
1070
     0
  0
VISUALSTYLE
  5
441B
102
{ACAD_REACTORS
330
441A
102
}
330
441A
100
AcDbVisualStyle
  2
Flat
 70
     0
 71
     2
 72
     1
 73
     1
 90
        2
 40
-0.6
 41
30.0
 62
     5
 63
     7
421
 16777215
 74
     0
 91
        4
 64
     7
 65
   257
 75
     1
175
     1
 42
1.0
 92
        8
 66
     7
 43
1.0
 76
     1
 77
     6
 78
     2
 67
     7
 79
     5
170
     0
171
     0
290
     0
174
     0
 93
       13
 44
0.0
173
     0
291
     1
 45
0.0
1001
ACAD
1000
AcDbSavedByObjectVersion
1070
     0
  0
VISUALSTYLE
  5
441C
102
{ACAD_REACTORS
330
441A
102
}
330
441A
100
AcDbVisualStyle
  2
FlatWithEdges
 70
     1
 71
     2
 72
     1
 73
     1
 90
        2
 40
-0.6
 41
30.0
 62
     5
 63
     7
421
 16777215
 74
     1
 91
        4
 64
     7
 65
   257
 75
     1
175
     1
 42
1.0
 92
        0
 66
   257
 43
1.0
 76
     1
 77
     6
 78
     2
 67
     7
 79
     5
170
     0
171
     0
290
     0
174
     0
 93
       13
 44
0.0
173
     0
291
     1
 45
0.0
1001
ACAD
1000
AcDbSavedByObjectVersion
1070
     0
  0
VISUALSTYLE
  5
441D
102
{ACAD_REACTORS
330
441A
102
}
330
441A
100
AcDbVisualStyle
  2
Gouraud
 70
     2
 71
     2
 72
     2
 73
     1
 90
        2
 40
-0.6
 41
30.0
 62
     5
 63
     7
421
 16777215
 74
     0
 91
        4
 64
     7
 65
   257
 75
     1
175
     1
 42
1.0
 92
        0
 66
     7
 43
1.0
 76
     1
 77
     6
 78
     2
 67
     7
 79
     5
170
     0
171
     0
290
     0
174
     0
 93
       13
 44
0.0
173
     0
291
     1
 45
0.0
1001
ACAD
1000
AcDbSavedByObjectVersion
1070
     0
  0
VISUALSTYLE
  5
441E
102
{ACAD_REACTORS
330
441A
102
}
330
441A
100
AcDbVisualStyle
  2
GouraudWithEdges
 70
     3
 71
     2
 72
     2
 73
     1
 90
        2
 40
-0.6
 41
30.0
 62
     5
 63
     7
421
 16777215
 74
     1
 91
        4
 64
     7
 65
   257
 75
     1
175
     1
 42
1.0
 92
        0
 66
   257
 43
1.0
 76
     1
 77
     6
 78
     2
 67
     7
 79
     5
170
     0
171
     0
290
     0
174
     0
 93
       13
 44
0.0
173
     0
291
     1
 45
0.0
1001
ACAD
1000
AcDbSavedByObjectVersion
1070
     0
  0
VISUALSTYLE
  5
4428
102
{ACAD_REACTORS
330
441A
102
}
330
441A
100
AcDbVisualStyle
  2
Linepattern
 70
    14
 71
     2
 72
     2
 73
     0
 90
        0
 40
-0.6
 41
-30.0
 62
     5
 63
     7
421
 16777215
 74
     1
 91
        4
 64
     7
 65
   257
 75
     7
175
     7
 42
1.0
 92
        8
 66
     7
 43
1.0
 76
     1
 77
     6
 78
     2
 67
     7
 79
     5
170
     0
171
     0
290
     0
174
     0
 93
        1
 44
0.0
173
     0
291
     1
 45
0.0
1001
ACAD
1000
AcDbSavedByObjectVersion
1070
     0
  0
VISUALSTYLE
  5
4424
102
{ACAD_REACTORS
330
441A
102
}
330
441A
100
AcDbVisualStyle
  2
Realistic
 70
     8
 71
     2
 72
     2
 73
     0
 90
        0
 40
-0.6
 41
-30.0
 62
     5
 63
     7
421
 16777215
 74
     1
 91
        0
 64
     7
 65
   257
 75
     1
175
     1
 42
1.0
 92
        8
 66
     8
424
  7895160
 43
1.0
 76
     1
 77
     6
 78
     2
 67
     7
 79
     5
170
     0
171
     0
290
     0
174
     0
 93
       13
 44
0.0
173
     0
291
     0
 45
0.0
1001
ACAD
1000
AcDbSavedByObjectVersion
1070
     0
  0
VISUALSTYLE
  5
4427
102
{ACAD_REACTORS
330
441A
102
}
330
441A
100
AcDbVisualStyle
  2
Thicken
 70
    13
 71
     2
 72
     2
 73
     0
 90
        0
 40
-0.6
 41
-30.0
 62
     5
 63
     7
421
 16777215
 74
     1
 91
        4
 64
     7
 65
   257
 75
     1
175
     1
 42
1.0
 92
       12
 66
     7
 43
1.0
 76
     1
 77
     6
 78
     2
 67
     7
 79
     5
170
     0
171
     0
290
     0
174
     0
 93
        1
 44
0.0
173
     0
291
     1
 45
0.0
1001
ACAD
1000
AcDbSavedByObjectVersion
1070
     0
  0
DICTIONARYVAR
  5
4505
102
{ACAD_REACTORS
330
25F
102
}
330
25F
100
DictionaryVariables
280
     0
  1
STANDARD
  0
DICTIONARYVAR
  5
260
102
{ACAD_REACTORS
330
25F
102
}
330
25F
100
DictionaryVariables
280
     0
  1
1
  0
DICTIONARYVAR
  5
4D0
102
{ACAD_REACTORS
330
25F
102
}
330
25F
100
DictionaryVariables
280
     0
  1
96
  0
DICTIONARY
  5
266
102
{ACAD_REACTORS
330
265
102
}
330
265
100
AcDbDictionary
281
     1
  0
XRECORD
  5
4488
102
{ACAD_REACTORS
330
265
102
}
330
265
100
AcDbXrecord
280
     1
 90
-1023410169
  0
DICTIONARY
  5
4508
330
4418
100
AcDbDictionary
280
     1
281
     1
  3
ACAD_XREC_ROUNDTRIP
360
4509
  0
DICTIONARY
  5
4506
330
4417
100
AcDbDictionary
280
     1
281
     1
  3
ACAD_XREC_ROUNDTRIP
360
4507
  0
DICTIONARY
  5
450A
330
4419
100
AcDbDictionary
280
     1
281
     1
  3
ACAD_XREC_ROUNDTRIP
360
450B
  0
DICTIONARY
  5
450C
330
442D
100
AcDbDictionary
280
     1
281
     1
  3
ACAD_XREC_ROUNDTRIP
360
450D
  0
XRECORD
  5
4509
102
{ACAD_REACTORS
330
4508
102
}
330
4508
100
AcDbXrecord
280
     1
102
MATERIAL
148
0.0
149
0.0
149
0.0
 93
        0
 94
       63
282
     0
 72
     1
 77
     1
171
     1
175
     1
179
     1
273
     0
  0
XRECORD
  5
4507
102
{ACAD_REACTORS
330
4506
102
}
330
4506
100
AcDbXrecord
280
     1
102
MATERIAL
148
0.0
149
0.0
149
0.0
 93
        0
 94
       63
282
     0
 72
     1
 77
     1
171
     1
175
     1
179
     1
273
     0
  0
XRECORD
  5
450B
102
{ACAD_REACTORS
330
450A
102
}
330
450A
100
AcDbXrecord
280
     1
102
MATERIAL
148
0.0
149
0.0
149
0.0
 93
        0
 94
       63
282
     0
 72
     1
 77
     1
171
     1
175
     1
179
     1
273
     0
  0
XRECORD
  5
450D
102
{ACAD_REACTORS
330
450C
102
}
330
450C
100
AcDbXrecord
280
     1
102
ACAD_ROUNDTRIP_PRE2007_TABLESTYLE
 90
      512
 91
        0
  1

 92
      512
 93
        0
  2

 94
      512
 95
        0
  3

  0
ENDSEC
  0
EOF
