  0
SECTION
  2
HEADER
  9
$ACADVER
  1
AC1018
  9
$ACADMAINTVER
 70
   104
  9
$DWGCODEPAGE
  3
ANSI_1252
  9
$LASTSAVEDBY
  1
basyouni
  9
$CUSTOMPROPERTYTAG
  1
AmdtFileType
  9
$CUSTOMPROPERTY
  1
84
  9
$INSBASE
 10
0.0
 20
0.0
 30
0.0
  9
$EXTMIN
 10
76.06579779116282
 20
-73.18115126479085
 30
-0.000000000000013
  9
$EXTMAX
 10
887.5610378193213
 20
219.3038540349173
 30
0.0000000000000023
  9
$LIMMIN
 10
0.0
 20
0.0
  9
$LIMMAX
 10
1000.0
 20
250.0
  9
$ORTHOMODE
 70
     0
  9
$REGENMODE
 70
     1
  9
$FILLMODE
 70
     1
  9
$QTEXTMODE
 70
     0
  9
$MIRRTEXT
 70
     1
  9
$LTSCALE
 40
1.0
  9
$ATTMODE
 70
     1
  9
$TEXTSIZE
 40
3.5
  9
$TRACEWID
 40
1.0
  9
$TEXTSTYLE
  7
STANDARD
  9
$CLAYER
  8
0
  9
$CELTYPE
  6
BYLAYER
  9
$CECOLOR
 62
   256
  9
$CELTSCALE
 40
1.0
  9
$DISPSILH
 70
     0
  9
$DIMSCALE
 40
1.0
  9
$DIMASZ
 40
7.0
  9
$DIMEXO
 40
0.0
  9
$DIMDLI
 40
7.0
  9
$DIMRND
 40
0.0
  9
$DIMDLE
 40
0.0
  9
$DIMEXE
 40
1.25
  9
$DIMTP
 40
0.0
  9
$DIMTM
 40
0.0
  9
$DIMTXT
 40
10.0
  9
$DIMCEN
 40
0.0
  9
$DIMTSZ
 40
0.0
  9
$DIMTOL
 70
     0
  9
$DIMLIM
 70
     0
  9
$DIMTIH
 70
     0
  9
$DIMTOH
 70
     0
  9
$DIMSE1
 70
     0
  9
$DIMSE2
 70
     0
  9
$DIMTAD
 70
     1
  9
$DIMZIN
 70
     8
  9
$DIMBLK
  1

  9
$DIMASO
 70
     1
  9
$DIMSHO
 70
     1
  9
$DIMPOST
  1

  9
$DIMAPOST
  1

  9
$DIMALT
 70
     0
  9
$DIMALTD
 70
     2
  9
$DIMALTF
 40
25.4
  9
$DIMLFAC
 40
0.5
  9
$DIMTOFL
 70
     1
  9
$DIMTVP
 40
0.0
  9
$DIMTIX
 70
     0
  9
$DIMSOXD
 70
     0
  9
$DIMSAH
 70
     0
  9
$DIMBLK1
  1

  9
$DIMBLK2
  1

  9
$DIMSTYLE
  2
ISO-25
  9
$DIMCLRD
 70
   256
  9
$DIMCLRE
 70
   256
  9
$DIMCLRT
 70
   256
  9
$DIMTFAC
 40
1.0
  9
$DIMGAP
 40
4.0
  9
$DIMJUST
 70
     0
  9
$DIMSD1
 70
     0
  9
$DIMSD2
 70
     0
  9
$DIMTOLJ
 70
     1
  9
$DIMTZIN
 70
     8
  9
$DIMALTZ
 70
     0
  9
$DIMALTTZ
 70
     0
  9
$DIMUPT
 70
     1
  9
$DIMDEC
 70
     4
  9
$DIMTDEC
 70
     4
  9
$DIMALTU
 70
     2
  9
$DIMALTTD
 70
     2
  9
$DIMTXSTY
  7
STANDARD
  9
$DIMAUNIT
 70
     0
  9
$DIMADEC
 70
     0
  9
$DIMALTRND
 40
0.0
  9
$DIMAZIN
 70
     0
  9
$DIMDSEP
 70
    46
  9
$DIMATFIT
 70
     0
  9
$DIMFRAC
 70
     0
  9
$DIMLDRBLK
  1

  9
$DIMLUNIT
 70
     2
  9
$DIMLWD
 70
    -2
  9
$DIMLWE
 70
    -2
  9
$DIMTMOVE
 70
     0
  9
$LUNITS
 70
     2
  9
$LUPREC
 70
     4
  9
$SKETCHINC
 40
1.0
  9
$FILLETRAD
 40
0.8
  9
$AUNITS
 70
     0
  9
$AUPREC
 70
     0
  9
$MENU
  1
.
  9
$ELEVATION
 40
0.0
  9
$PELEVATION
 40
0.0
  9
$THICKNESS
 40
0.0
  9
$LIMCHECK
 70
     0
  9
$CHAMFERA
 40
0.0
  9
$CHAMFERB
 40
0.0
  9
$CHAMFERC
 40
0.0
  9
$CHAMFERD
 40
0.0
  9
$SKPOLY
 70
     0
  9
$TDCREATE
 40
2450848.836806551
  9
$TDUCREATE
 40
2450848.753473218
  9
$TDUPDATE
 40
2454651.489453739
  9
$TDUUPDATE
 40
2454651.406120405
  9
$TDINDWG
 40
1.7993597917
  9
$TDUSRTIMER
 40
1.7993597917
  9
$USRTIMER
 70
     1
  9
$ANGBASE
 50
0.0
  9
$ANGDIR
 70
     0
  9
$PDMODE
 70
     0
  9
$PDSIZE
 40
0.0
  9
$PLINEWID
 40
0.5
  9
$SPLFRAME
 70
     0
  9
$SPLINETYPE
 70
     6
  9
$SPLINESEGS
 70
     8
  9
$HANDSEED
  5
2C39
  9
$SURFTAB1
 70
     6
  9
$SURFTAB2
 70
     6
  9
$SURFTYPE
 70
     6
  9
$SURFU
 70
     6
  9
$SURFV
 70
     6
  9
$UCSBASE
  2

  9
$UCSNAME
  2

  9
$UCSORG
 10
0.0
 20
0.0
 30
0.0
  9
$UCSXDIR
 10
1.0
 20
0.0
 30
0.0
  9
$UCSYDIR
 10
0.0
 20
1.0
 30
0.0
  9
$UCSORTHOREF
  2

  9
$UCSORTHOVIEW
 70
     0
  9
$UCSORGTOP
 10
0.0
 20
0.0
 30
0.0
  9
$UCSORGBOTTOM
 10
0.0
 20
0.0
 30
0.0
  9
$UCSORGLEFT
 10
0.0
 20
0.0
 30
0.0
  9
$UCSORGRIGHT
 10
0.0
 20
0.0
 30
0.0
  9
$UCSORGFRONT
 10
0.0
 20
0.0
 30
0.0
  9
$UCSORGBACK
 10
0.0
 20
0.0
 30
0.0
  9
$PUCSBASE
  2

  9
$PUCSNAME
  2

  9
$PUCSORG
 10
0.0
 20
0.0
 30
0.0
  9
$PUCSXDIR
 10
1.0
 20
0.0
 30
0.0
  9
$PUCSYDIR
 10
0.0
 20
1.0
 30
0.0
  9
$PUCSORTHOREF
  2

  9
$PUCSORTHOVIEW
 70
     0
  9
$PUCSORGTOP
 10
0.0
 20
0.0
 30
0.0
  9
$PUCSORGBOTTOM
 10
0.0
 20
0.0
 30
0.0
  9
$PUCSORGLEFT
 10
0.0
 20
0.0
 30
0.0
  9
$PUCSORGRIGHT
 10
0.0
 20
0.0
 30
0.0
  9
$PUCSORGFRONT
 10
0.0
 20
0.0
 30
0.0
  9
$PUCSORGBACK
 10
0.0
 20
0.0
 30
0.0
  9
$USERI1
 70
     0
  9
$USERI2
 70
     0
  9
$USERI3
 70
     0
  9
$USERI4
 70
     0
  9
$USERI5
 70
     0
  9
$USERR1
 40
0.0
  9
$USERR2
 40
0.0
  9
$USERR3
 40
0.0
  9
$USERR4
 40
0.0
  9
$USERR5
 40
0.0
  9
$WORLDVIEW
 70
     1
  9
$SHADEDGE
 70
     3
  9
$SHADEDIF
 70
    70
  9
$TILEMODE
 70
     1
  9
$MAXACTVP
 70
    16
  9
$PINSBASE
 10
0.0
 20
0.0
 30
0.0
  9
$PLIMCHECK
 70
     0
  9
$PEXTMIN
 10
1.000000000000000E+20
 20
1.000000000000000E+20
 30
1.000000000000000E+20
  9
$PEXTMAX
 10
-1.000000000000000E+20
 20
-1.000000000000000E+20
 30
-1.000000000000000E+20
  9
$PLIMMIN
 10
0.0
 20
0.0
  9
$PLIMMAX
 10
420.0
 20
297.0
  9
$UNITMODE
 70
     0
  9
$VISRETAIN
 70
     0
  9
$PLINEGEN
 70
     0
  9
$PSLTSCALE
 70
     0
  9
$TREEDEPTH
 70
  3020
  9
$CMLSTYLE
  2
STANDARD
  9
$CMLJUST
 70
     0
  9
$CMLSCALE
 40
1.0
  9
$PROXYGRAPHICS
 70
     1
  9
$MEASUREMENT
 70
     0
  9
$CELWEIGHT
370
    -1
  9
$ENDCAPS
280
     0
  9
$JOINSTYLE
280
     0
  9
$LWDISPLAY
290
     0
  9
$INSUNITS
 70
     0
  9
$HYPERLINKBASE
  1

  9
$STYLESHEET
  1
Zeich.ctb
  9
$XEDIT
290
     1
  9
$CEPSNTYPE
380
     0
  9
$PSTYLEMODE
290
     1
  9
$FINGERPRINTGUID
  2
{3C9C5203-FE5F-11D4-B79E-0010B575C074}
  9
$VERSIONGUID
  2
{FFFFFE9F-4FDF-43B4-8007-EDA5AF58C107}
  9
$EXTNAMES
290
     1
  9
$PSVPSCALE
 40
0.0
  9
$OLESTARTUP
290
     0
  9
$SORTENTS
280
   127
  9
$INDEXCTL
280
     0
  9
$HIDETEXT
280
     0
  9
$XCLIPFRAME
290
     0
  9
$HALOGAP
280
     0
  9
$OBSCOLOR
 70
   257
  9
$OBSLTYPE
280
     0
  9
$INTERSECTIONDISPLAY
280
     0
  9
$INTERSECTIONCOLOR
 70
   257
  9
$DIMASSOC
280
     1
  9
$PROJECTNAME
  1

  0
ENDSEC
  0
SECTION
  2
CLASSES
  0
CLASS
  1
IDBUFFER
  2
AcDbIdBuffer
  3
ObjectDBX Classes
 90
        0
 91
        0
280
     0
281
     0
  0
CLASS
  1
DICTIONARYVAR
  2
AcDbDictionaryVar
  3
ObjectDBX Classes
 90
        0
 91
        2
280
     0
281
     0
  0
CLASS
  1
ACMESTATEMGR
  2
AcMeStateMgr
  3
AcMeServices
 90
        0
 91
        1
280
     0
281
     0
  0
CLASS
  1
ACMESCOPE
  2
AcMeScope
  3
AcMeServices
 90
        0
 91
        1
280
     0
281
     0
  0
CLASS
  1
ACMECOMMANDHISTORY
  2
AcMeCommandHistory
  3
AcMeServices
 90
        0
 91
        1
280
     0
281
     0
  0
CLASS
  1
ACRFINSADJUSTERMGR
  2
AcRfInsAdjusterMgr
  3
AcMeServices
 90
        0
 91
        1
280
     0
281
     0
  0
CLASS
  1
ACMEDRAWINGMAN
  2
AcMeDrawingMan
  3
AcMeServices
 90
        0
 91
        1
280
     0
281
     0
  0
CLASS
  1
AMATTR
  2
AcMeAttribute
  3
AcMeServices
 90
        0
 91
        0
280
     0
281
     0
  0
CLASS
  1
ACMEBOMCOLUMN
  2
AcMeBOMColumn
  3
AcMeServices
 90
        0
 91
        0
280
     0
281
     0
  0
CLASS
  1
ACMEBOMCONF
  2
AcMeBOMConf
  3
AcMeServices
 90
        0
 91
        0
280
     0
281
     0
  0
CLASS
  1
ACMEBOMTABLE
  2
AcMeBOMTable
  3
AcMeServices
 90
        0
 91
        0
280
     0
281
     0
  0
CLASS
  1
ACMEBOMENTRY
  2
AcMeBOMEntry
  3
AcMeServices
 90
        0
 91
        0
280
     0
281
     0
  0
CLASS
  1
ACMEVIEW
  2
AcMeView
  3
AcMeServices
 90
        0
 91
        0
280
     0
281
     0
  0
CLASS
  1
LAYER_INDEX
  2
AcDbLayerIndex
  3
ObjectDBX Classes
 90
        0
 91
        0
280
     0
281
     0
  0
CLASS
  1
ACIMSYSVARMAN
  2
AcImSysVarManager
  3
AcMeServices
 90
        0
 91
        5
280
     0
281
     0
  0
CLASS
  1
ACIMINTSYSVAR
  2
AcImIntSysVar
  3
AcMeServices
 90
        0
 91
       27
280
     0
281
     0
  0
CLASS
  1
ACIMSTRSYSVAR
  2
AcImStrSysVar
  3
AcMeServices
 90
        0
 91
        5
280
     0
281
     0
  0
CLASS
  1
ACMSTANDARDJIS
  2
AcmStandardJIS
  3
"Amdt_StdImp|Product Description: AutoCAD Mechanical|Company: Autodesk"
 90
        0
 91
        0
280
     0
281
     0
  0
CLASS
  1
ACMSTANDARDANSI
  2
AcmStandardANSI
  3
"Amdt_StdImp|Product Description: AutoCAD Mechanical|Company: Autodesk"
 90
        0
 91
        1
280
     0
281
     0
  0
CLASS
  1
ACMSTANDARDBSI
  2
AcmStandardBSI
  3
"Amdt_StdImp|Product Description: AutoCAD Mechanical|Company: Autodesk"
 90
        0
 91
        0
280
     0
281
     0
  0
CLASS
  1
ACMSTANDARDDIN
  2
AcmStandardDIN
  3
"Amdt_StdImp|Product Description: AutoCAD Mechanical|Company: Autodesk"
 90
        0
 91
        0
280
     0
281
     0
  0
CLASS
  1
ACMSTANDARDISO
  2
AcmStandardISO
  3
"Amdt_StdImp|Product Description: AutoCAD Mechanical|Company: Autodesk"
 90
        0
 91
        0
280
     0
281
     0
  0
CLASS
  1
ACDBDICTIONARYWDFLT
  2
AcDbDictionaryWithDefault
  3
ObjectDBX Classes
 90
        0
 91
        1
280
     0
281
     0
  0
CLASS
  1
ACME_DOCUMENT
  2
AcMeDbDoc
  3
AcMeServices
 90
        0
 91
        2
280
     0
281
     0
  0
CLASS
  1
AMGSETTINGSOBJ
  2
AmgSettingsObj
  3
"AcadM|Product Description: AutoCAD Mechanical|Company: Autodesk"
 90
        0
 91
        2
280
     0
281
     0
  0
CLASS
  1
ACIMREALSYSVAR
  2
AcImRealSysVar
  3
AcMeServices
 90
        0
 91
        3
280
     0
281
     0
  0
CLASS
  1
ACDBENTITYCACHE
  2
AcMeEntityCache
  3
AcMeServices
 90
        0
 91
        1
280
     0
281
     0
  0
CLASS
  1
GSMANAGER
  2
AcMeGSManager
  3
AcMeServices
 90
        0
 91
        1
280
     0
281
     0
  0
CLASS
  1
AMDTINTERNALREACTOR
  2
AmdtInternalReactor
  3
AcMeServices
 90
        0
 91
        2
280
     0
281
     0
  0
CLASS
  1
ACME_DATABASE
  2
AcMeDbDatabase
  3
AcMeServices
 90
        0
 91
        1
280
     0
281
     0
  0
CLASS
  1
ACMDATADICTIONARY
  2
AcmDataDictionary
  3
"AcmSymBB|Product Description: AutoCAD Mechanical|Company: Autodesk"
 90
        0
 91
        1
280
     0
281
     0
  0
CLASS
  1
ACMDATAENTRYBLOCK
  2
AcmDataEntryBlock
  3
"AcmSymBB|Product Description: AutoCAD Mechanical|Company: Autodesk"
 90
        0
 91
        1
280
     0
281
     0
  0
CLASS
  1
AMGOBJPROPCFG
  2
AmgObjPropCfg
  3
"AmgLay|Product Description: AutoCAD Mechanical|Company: Autodesk"
 90
        1
 91
        1
280
     0
281
     0
  0
CLASS
  1
ACAMGFILTERDAT
  2
AcAmgFilterDat
  3
"AcadM|Product Description: AutoCAD Mechanical|Company: Autodesk"
 90
        0
 91
        5
280
     0
281
     0
  0
CLASS
  1
ACAD_PROXY_OBJECT_WRAPPER
  2
AcDbProxyObjectWrapper
  3
ObjectDBX Classes
 90
        0
 91
        0
280
     0
281
     0
  0
CLASS
  1
ACMDIMBREAKPERSREACTOR
  2
AcmDimBreakPersReactor
  3
amgDimApp().moduleName()
 90
     3071
 91
        2
280
     0
281
     0
  0
CLASS
  1
MATERIAL
  2
AcDbMaterial
  3
ObjectDBX Classes
 90
     1153
 91
        3
280
     0
281
     0
  0
CLASS
  1
VISUALSTYLE
  2
AcDbVisualStyle
  3
ObjectDBX Classes
 90
     4095
 91
       16
280
     0
281
     0
  0
CLASS
  1
TABLESTYLE
  2
AcDbTableStyle
  3
ObjectDBX Classes
 90
     4095
 91
        1
280
     0
281
     0
  0
CLASS
  1
ACGREFMASTER
  2
AcGrefMaster
  3
AcAttribServices
 90
        0
 91
        1
280
     0
281
     0
  0
CLASS
  1
AM_DRAWING_MGR
  2
AcDmDwgMgr
  3
AcMechDwgViewMgmt
 90
        0
 91
        1
280
     0
281
     0
  0
CLASS
  1
AM_DWG_DOCUMENT
  2
AcDmDwgDocument
  3
AcMechDwgViewMgmt
 90
        0
 91
        1
280
     0
281
     0
  0
CLASS
  1
AM_DWG_SHEET
  2
AcDmSheet
  3
AcMechDwgViewMgmt
 90
        0
 91
        1
280
     0
281
     0
  0
CLASS
  1
AM_VIEWDIMPARMAP
  2
AcDmViewDimParMap
  3
AcMechDwgViewMgmt
 90
        0
 91
        1
280
     0
281
     0
  0
CLASS
  1
AM_DWGMGR_NAME
  2
AcDmDwgMgrName
  3
AcMechDwgViewMgmt
 90
        0
 91
        1
280
     0
281
     0
  0
CLASS
  1
ACGREFACADMASTER
  2
AcGrefacadMaster
  3
AcGrefServices
 90
        0
 91
        1
280
     0
281
     0
  0
CLASS
  1
AMDTMENUSTATEMGR
  2
AmdtMenuStateMgr
  3
McadcomServices
 90
        0
 91
        1
280
     0
281
     0
  0
CLASS
  1
AMDTMCOMMENUSTATE
  2
AmdtMcomMenuState
  3
McadcomServices
 90
        0
 91
        1
280
     0
281
     0
  0
CLASS
  1
AMIMASTER
  2
AmiMaster
  3
AmiServices
 90
        0
 91
        1
280
     0
281
     0
  0
CLASS
  1
MAPIAMMOUDLE
  2
MApiAmModule
  3
MApiAmServices
 90
        0
 91
        1
280
     0
281
     0
  0
CLASS
  1
AMDTADMENUSTATE
  2
AmdtAdMenuState
  3
DesignerServices
 90
        0
 91
        1
280
     0
281
     0
  0
CLASS
  1
ADAPPL
  2
AcAdAppl
  3
DesignerServices
 90
        0
 91
        1
280
     0
281
     0
  0
CLASS
  1
DEPMGR
  2
AcAdDepMgr
  3
DesignerServices
 90
        0
 91
        1
280
     0
281
     0
  0
CLASS
  1
PARAMMGR
  2
AcAdParamMgr
  3
DesignerServices
 90
        0
 91
        1
280
     0
281
     0
  0
CLASS
  1
PARAMSCOPE
  2
AcAdParamScope
  3
DesignerServices
 90
        0
 91
        1
280
     0
281
     0
  0
CLASS
  1
NAMEDAPPL
  2
AcAdNamedAppl
  3
DesignerServices
 90
        0
 91
        1
280
     0
281
     0
  0
CLASS
  1
AMDTDMMENUSTATE
  2
AmdtDmMenuState
  3
AcMechDwgViewMgmt
 90
        0
 91
        1
280
     0
281
     0
  0
CLASS
  1
AMDTAMMENUSTATE
  2
AmdtAmMenuState
  3
DesignerAssemblies
 90
        0
 91
        1
280
     0
281
     0
  0
CLASS
  1
ACAMPROJECT
  2
AcAmProject
  3
DesignerAssemblies
 90
        0
 91
        1
280
     0
281
     0
  0
CLASS
  1
ACAMGRCOMPDEF
  2
AcAmGrCompDef
  3
DesignerAssemblies
 90
        0
 91
        1
280
     0
281
     0
  0
CLASS
  1
ACCMCONTEXT
  2
AcCmContext
  3
DesignerAssemblies
 90
        0
 91
        1
280
     0
281
     0
  0
CLASS
  1
ACAMCOMPDEF
  2
AcAmCompDef
  3
DesignerAssemblies
 90
        0
 91
        1
280
     0
281
     0
  0
CLASS
  1
ACAMCOMPDEFMGR
  2
AcAmCompDefMgr
  3
DesignerAssemblies
 90
        0
 91
        1
280
     0
281
     0
  0
CLASS
  1
AMCONTEXTMGR
  2
AcAmContextMgr
  3
DesignerAssemblies
 90
        0
 91
        1
280
     0
281
     0
  0
CLASS
  1
ACAMCONTEXTMODELER
  2
AcAmContextModeler
  3
DesignerAssemblies
 90
        0
 91
        1
280
     0
281
     0
  0
CLASS
  1
ACRFATTGENMGR
  2
AcRfAttGeneralMgr
  3
AcAttribServices
 90
        0
 91
        1
280
     0
281
     0
  0
CLASS
  1
ACRFOBJATTMGR
  2
AcRfObjAttGroupMgr
  3
AcAttribServices
 90
        0
 91
        1
280
     0
281
     0
  0
CLASS
  1
ACRFMCADAPIATTHOLDER
  2
AcRfMCADAPIAttHolder
  3
AcAttribServices
 90
        0
 91
        1
280
     0
281
     0
  0
CLASS
  1
AMDTSYSATTR
  2
AmdtSystemAttribute
  3
AcAttribServices
 90
        0
 91
        1
280
     0
281
     0
  0
CLASS
  1
CATALOGSTATE
  2
AcAmCatalogState
  3
DesignerAssemblies
 90
        0
 91
        1
280
     0
281
     0
  0
CLASS
  1
ACAMGRCOMPDEFSET
  2
AcAmGrCompDefSet
  3
DesignerAssemblies
 90
        0
 91
        1
280
     0
281
     0
  0
CLASS
  1
AMDTBROWSERDBTAB
  2
AmdtBrowserDbTab
  3
McadcomServices
 90
        0
 91
        1
280
     0
281
     0
  0
CLASS
  1
CBROWSERAPPOBJECT
  2
CBrowserAppObject
  3
McadcomServices
 90
        0
 91
        3
280
     0
281
     0
  0
CLASS
  1
DM_PLACEHOLDER
  2
AcDmSelsetPlaceholder
  3
AcMechDwgViewMgmt
 90
        0
 91
        1
280
     0
281
     0
  0
CLASS
  1
ACMSURFSTANDARDANSI
  2
AcmSurfTextStdANSI
  3
"Amdt_StdImp|Product Description: AutoCAD Mechanical|Company: Autodesk"
 90
        0
 91
        1
280
     0
281
     0
  0
CLASS
  1
ACMFCFSTANDARDANSI
  2
AcmFCFStdANSI
  3
"Amdt_StdImp|Product Description: AutoCAD Mechanical|Company: Autodesk"
 90
        0
 91
        1
280
     0
281
     0
  0
CLASS
  1
ACMWELDSTANDARDANSI
  2
AcmWeldingStdANSI
  3
"Amdt_StdImp|Product Description: AutoCAD Mechanical|Company: Autodesk"
 90
        0
 91
        1
280
     0
281
     0
  0
CLASS
  1
ACMIDSTANDARDANSI
  2
AcmIdStdANSI
  3
"Amdt_StdImp|Product Description: AutoCAD Mechanical|Company: Autodesk"
 90
        0
 91
        1
280
     0
281
     0
  0
CLASS
  1
ACMDATUMSTANDARDANSI
  2
AcmDatumStdANSI
  3
"Amdt_StdImp|Product Description: AutoCAD Mechanical|Company: Autodesk"
 90
        0
 91
        1
280
     0
281
     0
  0
CLASS
  1
ACMBOMSTANDARDANSI
  2
AcmBOMStdANSI
  3
"Amdt_StdImp|Product Description: AutoCAD Mechanical|Company: Autodesk"
 90
        0
 91
        1
280
     0
281
     0
  0
CLASS
  1
ACMDETAILSTANDARDANSI
  2
AmdtDetailSymStdANSI
  3
"Amdt_StdImp|Product Description: AutoCAD Mechanical|Company: Autodesk"
 90
        0
 91
        1
280
     0
281
     0
  0
CLASS
  1
ACMSECTIONSTANDARDANSI
  2
AmdtSectionSymStdANSI
  3
"Amdt_StdImp|Product Description: AutoCAD Mechanical|Company: Autodesk"
 90
        0
 91
        1
280
     0
281
     0
  0
CLASS
  1
ACMCENTERLINESTANDARDANSI
  2
AmdtCenterLineStdANSI
  3
"Amdt_StdImp|Product Description: AutoCAD Mechanical|Company: Autodesk"
 90
        0
 91
        1
280
     0
281
     0
  0
CLASS
  1
ACMTHREADLINESTANDARDANSI
  2
AmdtThreadLineStdANSI
  3
"Amdt_StdImp|Product Description: AutoCAD Mechanical|Company: Autodesk"
 90
        0
 91
        1
280
     0
281
     0
  0
CLASS
  1
ACMNOTESTANDARDANSI
  2
AmdtNoteStdANSI
  3
"Amdt_StdImp|Product Description: AutoCAD Mechanical|Company: Autodesk"
 90
        0
 91
        1
280
     0
281
     0
  0
CLASS
  1
ACMTAPERSTANDARDANSI
  2
AcmTaperStdANSI
  3
"Amdt_StdImp|Product Description: AutoCAD Mechanical|Company: Autodesk"
 90
        0
 91
        1
280
     0
281
     0
  0
CLASS
  1
AMDTNOTETEMPLATEDB
  2
AmdtNoteTemplateDB
  3
AMDT_STDIMP_MODULE_NAME
 90
        0
 91
        6
280
     0
281
     0
  0
CLASS
  1
ACAMGLAYSTD
  2
AcAmgLayStd
  3
"AmgLay|Product Description: AutoCAD Mechanical|Company: Autodesk"
 90
        0
 91
        1
280
     0
281
     0
  0
CLASS
  1
ACAMGDIMSTD
  2
AcAmgDimStd
  3
"AmgDim|Product Description: AutoCAD Mechanical|Company: Autodesk"
 90
        0
 91
        1
280
     0
281
     0
  0
CLASS
  1
ACAMGHOLECHARTSTDANSI
  2
AcAmgHoleChartStdANSI
  3
ACMSYMBB_MODULE_NAME
 90
        0
 91
        1
280
     0
281
     0
  0
CLASS
  1
ACAMGTITLESTD
  2
AcAmgTitleStd
  3
"AmgTitle|Product Description: AutoCAD Mechanical|Company: Autodesk"
 90
        0
 91
        1
280
     0
281
     0
  0
CLASS
  1
CAMSSTRUCTBTNSTATE
  2
StructBtnState
  3
L"DesignerAssemblies"
 90
        0
 91
        1
280
     0
281
     0
  0
ENDSEC
  0
SECTION
  2
TABLES
  0
TABLE
  2
VPORT
  5
13
330
0
100
AcDbSymbolTable
 70
     1
  0
VPORT
  5
2B39
330
13
100
AcDbSymbolTableRecord
100
AcDbViewportTableRecord
  2
*Active
 70
     0
 10
0.0
 20
0.0
 11
1.0
 21
1.0
 12
500.0
 22
125.0
 13
0.0
 23
0.0
 14
10.0
 24
10.0
 15
50.0
 25
50.0
 16
0.0
 26
0.0
 36
1.0
 17
0.0
 27
0.0
 37
0.0
 40
628.0834914611006
 41
1.59214501510574
 42
50.0
 43
0.0
 44
0.0
 50
0.0
 51
0.0
 71
     0
 72
   100
 73
     1
 74
     0
 75
     0
 76
     0
 77
     0
 78
     0
281
     0
 65
     1
110
0.0
120
0.0
130
0.0
111
1.0
121
0.0
131
0.0
112
0.0
122
1.0
132
0.0
 79
     0
146
0.0
  0
ENDTAB
  0
TABLE
  2
LTYPE
  5
E
330
0
100
AcDbSymbolTable
 70
    10
  0
LTYPE
  5
F
330
E
100
AcDbSymbolTableRecord
100
AcDbLinetypeTableRecord
  2
BYBLOCK
 70
     0
  3

 72
    65
 73
     0
 40
0.0
  0
LTYPE
  5
10
330
E
100
AcDbSymbolTableRecord
100
AcDbLinetypeTableRecord
  2
BYLAYER
 70
     0
  3

 72
    65
 73
     0
 40
0.0
  0
LTYPE
  5
6
330
E
100
AcDbSymbolTableRecord
100
AcDbLinetypeTableRecord
  2
CONTINUOUS
 70
     0
  3
Solid line
 72
    65
 73
     0
 40
0.0
  0
LTYPE
  5
4A
330
E
100
AcDbSymbolTableRecord
100
AcDbLinetypeTableRecord
  2
MITTE
 70
     0
  3
____ _ ____ _ ____ _ ____ _ ____ _ ____ _ ____ 
 72
    65
 73
     4
 40
2.0
 49
1.25
 74
     0
 49
-0.25
 74
     0
 49
0.25
 74
     0
 49
-0.25
 74
     0
  0
LTYPE
  5
C7
330
E
100
AcDbSymbolTableRecord
100
AcDbLinetypeTableRecord
  2
STRICHLINIE
 70
     0
  3
Strichlinie __ __ __ __ __ __ __ __ __ __ __ __
 72
    65
 73
     2
 40
0.75
 49
0.5
 74
     0
 49
-0.25
 74
     0
  0
LTYPE
  5
253
330
E
100
AcDbSymbolTableRecord
100
AcDbLinetypeTableRecord
  2
Amconstr
 70
     0
  3
_______________________
 72
    65
 73
     2
 40
9999.0
 49
9999.0
 74
     0
 49
0.0
 74
     0
  0
LTYPE
  5
259
330
E
100
AcDbSymbolTableRecord
100
AcDbLinetypeTableRecord
  2
PHANTOM2
 70
     0
  3
Phantom (.5x) ___ _ _ ___ _ _ ___ _ _ ___ _ _
 72
    65
 73
     6
 40
1.25
 49
0.625
 74
     0
 49
-0.125
 74
     0
 49
0.125
 74
     0
 49
-0.125
 74
     0
 49
0.125
 74
     0
 49
-0.125
 74
     0
  0
LTYPE
  5
25A
330
E
100
AcDbSymbolTableRecord
100
AcDbLinetypeTableRecord
  2
Amzigzag2
 70
     0
  3
/\/-/\/-/\/-/\/-/\/-/\/
 72
    65
 73
     2
 40
0.4401
 49
0.0001
 74
     4
 75
   135
340
257
 46
0.0016
 50
0.0
 44
0.0
 45
0.0
 49
-0.4400000000000001
 74
     0
  0
LTYPE
  5
2B7C
330
E
100
AcDbSymbolTableRecord
100
AcDbLinetypeTableRecord
  2
HIDDEN
 70
     0
  3
Verdeckt
 72
    65
 73
     2
 40
0.375
 49
0.25
 74
     0
 49
-0.125
 74
     0
  0
LTYPE
  5
2B7D
330
E
100
AcDbSymbolTableRecord
100
AcDbLinetypeTableRecord
  2
CENTER
 70
     0
  3
Mitte ____ _ ____ _ ____ _ ____ _ ____ _ ____
 72
    65
 73
     4
 40
2.0
 49
1.25
 74
     0
 49
-0.25
 74
     0
 49
0.25
 74
     0
 49
-0.25
 74
     0
  0
LTYPE
  5
2BC0
330
E
100
AcDbSymbolTableRecord
100
AcDbLinetypeTableRecord
  2
ACANSTGB
 70
     0
  3
__ . . __ . .
 72
    65
 73
     6
 40
0.35433070866
 49
0.15748031496
 74
     0
 49
-0.03937007874
 74
     0
 49
0.03937007874
 74
     0
 49
-0.03937007874
 74
     0
 49
0.03937007874
 74
     0
 49
-0.03937007874
 74
     0
  0
LTYPE
  5
2BC1
330
E
100
AcDbSymbolTableRecord
100
AcDbLinetypeTableRecord
  2
ACANSTGL
 70
     0
  3
_ _ _ _ _
 72
    65
 73
     2
 40
0.11811023622
 49
0.07874015748
 74
     0
 49
-0.03937007874
 74
     0
  0
ENDTAB
  0
TABLE
  2
LAYER
  5
B
330
0
100
AcDbSymbolTable
 70
     5
  0
LAYER
  5
5
330
B
100
AcDbSymbolTableRecord
100
AcDbLayerTableRecord
  2
0
 70
     0
 62
     7
  6
CONTINUOUS
370
    -3
390
235
  0
LAYER
  5
1F
330
B
100
AcDbSymbolTableRecord
100
AcDbLayerTableRecord
  2
BEM
 70
     0
 62
     1
  6
CONTINUOUS
370
    -3
390
235
  0
LAYER
  5
49
330
B
100
AcDbSymbolTableRecord
100
AcDbLayerTableRecord
  2
MITTE
 70
     0
 62
     6
  6
MITTE
370
    -3
390
235
  0
LAYER
  5
6A
330
B
100
AcDbSymbolTableRecord
100
AcDbLayerTableRecord
  2
LINIE
 70
     0
 62
     6
  6
CONTINUOUS
370
    -3
390
235
  0
LAYER
  5
28
330
B
100
AcDbSymbolTableRecord
100
AcDbLayerTableRecord
  2
Defpoints
 70
     0
 62
     7
  6
CONTINUOUS
290
     0
370
    -3
390
235
  0
ENDTAB
  0
TABLE
  2
STYLE
  5
C
330
0
100
AcDbSymbolTable
 70
     4
  0
STYLE
  5
D
330
C
100
AcDbSymbolTableRecord
100
AcDbTextStyleTableRecord
  2
STANDARD
 70
     0
 40
0.0
 41
1.0
 50
0.0
 71
     0
 42
3.5
  3
romans.shx
  4

  0
STYLE
  5
257
330
C
100
AcDbSymbolTableRecord
100
AcDbTextStyleTableRecord
  2

 70
     1
 40
0.0
 41
1.0
 50
0.0
 71
     0
 42
3.5
  3
ltypeshp.shx
  4

  0
STYLE
  5
2BB2
330
C
100
AcDbSymbolTableRecord
100
AcDbTextStyleTableRecord
  2
ACANSTS
 70
     0
 40
1.0
 41
1.0
 50
0.0
 71
     0
 42
3.5
  3
romans.shx
  4

  0
STYLE
  5
2BBF
330
C
100
AcDbSymbolTableRecord
100
AcDbTextStyleTableRecord
  2
ACANSGDT
 70
     0
 40
0.0
 41
1.0
 50
0.0
 71
     0
 42
3.5
  3
amgdt.shx
  4

  0
ENDTAB
  0
TABLE
  2
VIEW
  5
11
330
0
100
AcDbSymbolTable
 70
     0
  0
ENDTAB
  0
TABLE
  2
UCS
  5
12
330
0
100
AcDbSymbolTable
 70
     0
  0
ENDTAB
  0
TABLE
  2
APPID
  5
15
330
0
100
AcDbSymbolTable
 70
    11
  0
APPID
  5
16
330
15
100
AcDbSymbolTableRecord
100
AcDbRegAppTableRecord
  2
ACAD
 70
     0
  0
APPID
  5
202
330
15
100
AcDbSymbolTableRecord
100
AcDbRegAppTableRecord
  2
MCAD_NO_VIS
 70
     0
  0
APPID
  5
242
330
15
100
AcDbSymbolTableRecord
100
AcDbRegAppTableRecord
  2
ACAD_TEMP_GRAPHIC
 70
     0
  0
APPID
  5
28C2
330
15
100
AcDbSymbolTableRecord
100
AcDbRegAppTableRecord
  2
GENIUS_GENODEF_13
 70
     0
  0
APPID
  5
28C3
330
15
100
AcDbSymbolTableRecord
100
AcDbRegAppTableRecord
  2
GENIUS_GENOBJ-N-CEN_13
 70
     0
  0
APPID
  5
2B7F
330
15
100
AcDbSymbolTableRecord
100
AcDbRegAppTableRecord
  2
AD_DRAW
 70
     0
  0
APPID
  5
2B82
330
15
100
AcDbSymbolTableRecord
100
AcDbRegAppTableRecord
  2
ACATTRIBSERVICES
 70
     0
  0
APPID
  5
2BA3
330
15
100
AcDbSymbolTableRecord
100
AcDbRegAppTableRecord
  2
DESIGNERASSEMBLIES
 70
     0
  0
APPID
  5
2BAB
330
15
100
AcDbSymbolTableRecord
100
AcDbRegAppTableRecord
  2
ACADM_DIM_EDIT
 70
     0
  0
APPID
  5
2BAC
330
15
100
AcDbSymbolTableRecord
100
AcDbRegAppTableRecord
  2
AMDT_DM_ADJ
 70
     0
  0
APPID
  5
2BD6
330
15
100
AcDbSymbolTableRecord
100
AcDbRegAppTableRecord
  2
ACAD_PSEXT
 70
     0
  0
ENDTAB
  0
TABLE
  2
DIMSTYLE
  5
17
330
0
100
AcDbSymbolTable
 70
     2
100
AcDbDimStyleTable
 71
     1
340
1D
  0
DIMSTYLE
105
1D
330
17
100
AcDbSymbolTableRecord
100
AcDbDimStyleTableRecord
  2
ISO-25
 70
     0
 41
7.0
 42
0.0
 43
7.0
 44
1.25
 73
     0
 74
     0
 77
     1
 78
     8
140
10.0
141
0.0
144
0.5
147
4.0
172
     1
176
   256
177
   256
178
   256
284
     8
288
     1
340
D
  0
DIMSTYLE
105
5B
330
17
100
AcDbSymbolTableRecord
100
AcDbDimStyleTableRecord
  2
STANDARD
 70
     0
  4
"
 41
7.0
 42
0.0
 43
7.0
 44
1.25
 47
0.1
 48
0.1
 73
     0
 74
     0
 77
     1
 78
     8
140
10.0
141
0.0
143
0.0393701
144
0.5
147
4.0
172
     1
176
   256
177
   256
178
   256
271
     2
272
     3
274
     4
283
     0
284
     8
288
     1
340
D
  0
ENDTAB
  0
TABLE
  2
BLOCK_RECORD
  5
1
330
0
100
AcDbSymbolTable
 70
    20
  0
BLOCK_RECORD
  5
2
102
{ACAD_XDICTIONARY
360
3
102
}
330
1
100
AcDbSymbolTableRecord
100
AcDbBlockTableRecord
  2
*MODEL_SPACE
340
238
  0
BLOCK_RECORD
  5
8
102
{ACAD_XDICTIONARY
360
17E1
102
}
330
1
100
AcDbSymbolTableRecord
100
AcDbBlockTableRecord
  2
*PAPER_SPACE
340
239
  0
ENDTAB
  0
ENDSEC
  0
SECTION
  2
BLOCKS
  0
BLOCK
  5
4
330
2
100
AcDbEntity
  8
0
100
AcDbBlockBegin
  2
*MODEL_SPACE
 70
     0
 10
0.0
 20
0.0
 30
0.0
  3
*MODEL_SPACE
  1

  0
ENDBLK
  5
7
330
2
100
AcDbEntity
  8
0
100
AcDbBlockEnd
  0
BLOCK
  5
9
330
8
100
AcDbEntity
 67
     1
  8
0
100
AcDbBlockBegin
  2
*PAPER_SPACE
 70
     0
 10
0.0
 20
0.0
 30
0.0
  3
*PAPER_SPACE
  1

  0
ENDBLK
  5
A
330
8
100
AcDbEntity
 67
     1
  8
0
100
AcDbBlockEnd
  0
ENDSEC
  0
SECTION
  2
ENTITIES
  0
LINE
  5
521
330
2
100
AcDbEntity
  8
0
 48
10.0
100
AcDbLine
 10
369.9978805100393
 20
66.36058567711689
 30
0.0
 11
604.9978805100392
 21
66.36058567711643
 31
0.0
  0
LINE
  5
522
330
2
100
AcDbEntity
  8
0
 48
10.0
100
AcDbLine
 10
369.9978805100393
 20
178.3605856771166
 30
0.0
 11
604.9978805100392
 21
178.3605856771169
 31
0.0
  0
CIRCLE
  5
54B
330
2
100
AcDbEntity
  8
0
  6
Continuous
100
AcDbCircle
 10
141.2251559216943
 20
122.3605856771166
 30
0.0
 40
56.0
  0
ARC
  5
54D
330
2
100
AcDbEntity
  8
LINIE
100
AcDbCircle
 10
116.2251559216943
 20
143.3380764565488
 30
0.0
 40
13.157
100
AcDbArc
 50
173.2173685762128
 51
98.43370980862607
  0
CIRCLE
  5
54E
330
2
100
AcDbEntity
  8
0
100
AcDbCircle
 10
116.2251559216943
 20
143.3380764565488
 30
0.0
 40
11.445
  0
LINE
  5
54F
330
2
100
AcDbEntity
  8
MITTE
 48
10.0
100
AcDbLine
 10
116.2251559216943
 20
156.4950764565487
 30
0.0
 11
116.2251559216943
 21
130.1810764565489
 31
0.0
  0
ARC
  5
550
330
2
100
AcDbEntity
  8
LINIE
100
AcDbCircle
 10
166.2251559216943
 20
143.3380764565484
 30
0.0
 40
13.157
100
AcDbArc
 50
173.2173685762128
 51
98.43370980862607
  0
LINE
  5
551
330
2
100
AcDbEntity
  8
MITTE
 48
10.0
100
AcDbLine
 10
166.2251559216943
 20
158.25945364161
 30
0.0
 11
166.2251559216943
 21
127.8405386375782
 31
0.0
  0
CIRCLE
  5
552
330
2
100
AcDbEntity
  8
0
100
AcDbCircle
 10
166.2251559216943
 20
143.3380764565484
 30
0.0
 40
11.445
  0
LINE
  5
557
330
2
100
AcDbEntity
  8
MITTE
 48
10.0
100
AcDbLine
 10
160.4947320063988
 20
91.36058567711666
 30
0.0
 11
121.8696169892669
 21
91.36058567711666
 31
0.0
  0
ARC
  5
558
330
2
100
AcDbEntity
  8
LINIE
100
AcDbCircle
 10
141.2251559216943
 20
91.36058567711666
 30
0.0
 40
16.662
100
AcDbArc
 50
172.4006678027556
 51
105.3648577620551
  0
CIRCLE
  5
559
330
2
100
AcDbEntity
  8
0
100
AcDbCircle
 10
141.2251559216943
 20
91.36058567711666
 30
0.0
 40
14.95
  0
TEXT
  5
55B
330
2
100
AcDbEntity
  8
BEM
100
AcDbText
 10
95.74682705272971
 20
127.1895415857482
 30
0.0
 40
10.0
  1
L
100
AcDbText
  0
LINE
  5
55C
330
2
100
AcDbEntity
  8
MITTE
 48
10.0
100
AcDbLine
 10
101.4205980070032
 20
143.3605856771166
 30
0.0
 11
130.7433870466961
 21
143.3605856771166
 31
0.0
  0
TEXT
  5
55D
330
2
100
AcDbEntity
  8
BEM
100
AcDbText
 10
181.4842033280874
 20
127.1895415857482
 30
0.0
 40
10.0
  1
R
100
AcDbText
  0
LINE
  5
55E
330
2
100
AcDbEntity
  8
MITTE
 48
10.0
100
AcDbLine
 10
151.59795470572
 20
143.3605856771166
 30
0.0
 11
182.05293306163
 21
143.3605856771166
 31
0.0
  0
LINE
  5
56A
330
2
100
AcDbEntity
  8
0
100
AcDbLine
 10
368.3978805100394
 20
212.3605856771166
 30
0.0
 11
368.3978805100394
 21
32.36058567711666
 31
0.0
1001
ACAD
1000
ASC_BOUNDS
1002
{
1070
    19
1005
0
1005
0
1005
0
1005
0
1002
}
  0
LINE
  5
56B
330
2
100
AcDbEntity
  8
0
100
AcDbLine
 10
336.3978805100394
 20
212.3605856771166
 30
0.0
 11
336.3978805100394
 21
32.36058567711666
 31
0.0
1001
ACAD
1000
ASC_BOUNDS
1002
{
1070
    19
1005
0
1005
0
1002
}
  0
LINE
  5
56C
330
2
100
AcDbEntity
  8
0
100
AcDbLine
 10
338.3978805100394
 20
214.3605856771166
 30
0.0
 11
338.3978805100394
 21
30.36058567711666
 31
0.0
  0
LINE
  5
56D
330
2
100
AcDbEntity
  8
0
100
AcDbLine
 10
366.3978805100394
 20
214.3605856771166
 30
0.0
 11
366.3978805100394
 21
30.36058567711666
 31
0.0
  0
LINE
  5
56E
330
2
100
AcDbEntity
  8
0
100
AcDbLine
 10
369.9978805100393
 20
172.3605856771166
 30
0.0
 11
369.9978805100393
 21
72.36058567711666
 31
0.0
  0
LINE
  5
56F
330
2
100
AcDbEntity
  8
0
100
AcDbLine
 10
330.3978805100394
 20
162.0926364846855
 30
0.0
 11
330.3978805100394
 21
82.62853486954782
 31
0.0
1001
ACAD
1000
ASC_BOUNDS
1002
{
1070
    19
1005
0
1005
0
1002
}
  0
LINE
  5
570
330
2
100
AcDbEntity
  8
0
100
AcDbLine
 10
331.3978805100394
 20
162.3605856771166
 30
0.0
 11
331.3978805100394
 21
82.36058567711666
 31
0.0
  0
LINE
  5
571
330
2
100
AcDbEntity
  8
0
100
AcDbLine
 10
328.5978805100392
 20
142.3605856771164
 30
0.0
 11
330.3978805100391
 21
142.3605856771164
 31
0.0
  0
LINE
  5
572
330
2
100
AcDbEntity
  8
0
100
AcDbLine
 10
328.5978805100392
 20
102.3605856771166
 30
0.0
 11
330.3978805100394
 21
102.3605856771166
 31
0.0
  0
LINE
  5
573
330
2
100
AcDbEntity
  8
MITTE
 48
20.0
100
AcDbLine
 10
687.4007272407661
 20
122.3605856771166
 30
0.0
 11
264.1617304038505
 21
122.3605856771166
 31
0.0
1001
ACAD
1000
ASC_BOUNDS
1002
{
1070
    19
1002
}
  0
LINE
  5
579
330
2
100
AcDbEntity
  8
0
100
AcDbLine
 10
328.5978805100392
 20
142.3605856771164
 30
0.0
 11
328.5978805100392
 21
102.3605856771166
 31
0.0
1001
ACAD
1000
ASC_BOUNDS
1002
{
1070
    19
1005
0
1005
0
1002
}
  0
LINE
  5
57A
330
2
100
AcDbEntity
  8
0
100
AcDbLine
 10
326.5978805100392
 20
140.3605856771164
 30
0.0
 11
326.5978805100392
 21
104.3605856771166
 31
0.0
1001
ACAD
1000
ASC_BOUNDS
1002
{
1070
    19
1005
0
1005
0
1002
}
  0
LINE
  5
57B
330
2
100
AcDbEntity
  8
0
100
AcDbLine
 10
328.5978805100392
 20
102.3605856771169
 30
0.0
 11
326.5978805100392
 21
104.3605856771166
 31
0.0
  0
LINE
  5
57C
330
2
100
AcDbEntity
  8
0
100
AcDbLine
 10
268.5978805100392
 20
136.3605856771164
 30
0.0
 11
276.597880510039
 21
136.3605856771164
 31
0.0
1001
ACAD
1000
ASC_BOUNDS
1002
{
1070
    19
1005
0
1002
}
  0
LINE
  5
57D
330
2
100
AcDbEntity
  8
0
100
AcDbLine
 10
268.5978805100392
 20
108.3605856771166
 30
0.0
 11
323.3978805100392
 21
108.3605856771166
 31
0.0
1001
ACAD
1000
ASC_BOUNDS
1002
{
1070
    19
1005
0
1002
}
  0
LINE
  5
57E
330
2
100
AcDbEntity
  8
0
100
AcDbLine
 10
266.5978805100392
 20
134.3605856771164
 30
0.0
 11
266.5978805100392
 21
110.3605856771166
 31
0.0
1001
ACAD
1000
ASC_BOUNDS
1002
{
1070
    19
1005
0
1005
0
1002
}
  0
LINE
  5
57F
330
2
100
AcDbEntity
  8
0
100
AcDbLine
 10
268.5978805100392
 20
136.3605856771164
 30
0.0
 11
268.5978805100392
 21
108.3605856771166
 31
0.0
1001
ACAD
1000
ASC_BOUNDS
1002
{
1070
    19
1005
0
1005
0
1002
}
  0
LINE
  5
580
330
2
100
AcDbEntity
  8
0
100
AcDbLine
 10
268.5978805100392
 20
108.3605856771166
 30
0.0
 11
266.5978805100392
 21
110.3605856771166
 31
0.0
1001
ACAD
1000
ASC_BOUNDS
1002
{
1070
    19
1005
0
1005
0
1002
}
  0
LINE
  5
581
330
2
100
AcDbEntity
  8
0
100
AcDbLine
 10
268.5978805100392
 20
136.3605856771164
 30
0.0
 11
266.5978805100392
 21
134.3605856771164
 31
0.0
1001
ACAD
1000
ASC_BOUNDS
1002
{
1070
    19
1005
0
1005
0
1002
}
  0
ARC
  5
582
330
2
100
AcDbEntity
  8
0
100
AcDbCircle
 10
323.3978805100392
 20
105.1605856771166
 30
0.0
 40
3.2
100
AcDbArc
 50
0.0
 51
90.0
1001
ACAD
1000
ASC_BOUNDS
1002
{
1070
    19
1005
0
1005
0
1002
}
  0
LINE
  5
583
330
2
100
AcDbEntity
  8
0
100
AcDbLine
 10
281.5978805100378
 20
135.4372825077382
 30
0.0
 11
307.5978805100442
 21
135.4372825077382
 31
0.0
  0
LINE
  5
584
330
2
100
AcDbEntity
  8
0
100
AcDbLine
 10
276.597880510039
 20
140.5605856771165
 30
0.0
 11
312.5978805100392
 21
140.5605856771167
 31
0.0
1001
ACAD
1000
ASC_BOUNDS
1002
{
1070
    19
1005
0
1002
}
  0
LINE
  5
585
330
2
100
AcDbEntity
  8
0
100
AcDbLine
 10
276.597880510039
 20
136.3605856771164
 30
0.0
 11
276.597880510039
 21
140.5605856771165
 31
0.0
  0
ARC
  5
586
330
2
100
AcDbEntity
  8
0
100
AcDbCircle
 10
281.2747164601251
 20
147.687239506522
 30
0.0
 40
12.25421892554589
100
AcDbArc
 50
247.5640077726054
 51
271.5111597997544
  0
LINE
  5
587
330
2
100
AcDbEntity
  8
0
100
AcDbLine
 10
328.5978805100392
 20
142.3605856771164
 30
0.0
 11
326.5978805100392
 21
140.3605856771164
 31
0.0
  0
LINE
  5
588
330
2
100
AcDbEntity
  8
0
100
AcDbLine
 10
312.5978805100392
 20
136.3605856771164
 30
0.0
 11
323.3978805100392
 21
136.3605856771164
 31
0.0
1001
ACAD
1000
ASC_BOUNDS
1002
{
1070
    19
1002
}
  0
LINE
  5
589
330
2
100
AcDbEntity
  8
0
100
AcDbLine
 10
312.5978805100392
 20
136.3605856771164
 30
0.0
 11
312.5978805100392
 21
140.5605856771165
 31
0.0
  0
ARC
  5
58A
330
2
100
AcDbEntity
  8
0
100
AcDbCircle
 10
307.9210445599533
 20
147.687239506522
 30
0.0
 40
12.25421892554589
100
AcDbArc
 50
268.4888402002456
 51
292.4359922273909
  0
ARC
  5
58B
330
2
100
AcDbEntity
  8
0
100
AcDbCircle
 10
323.3978805100392
 20
139.5605856771165
 30
0.0
 40
3.2
100
AcDbArc
 50
270.0
 51
0.0
1001
ACAD
1000
ASC_BOUNDS
1002
{
1070
    19
1005
0
1005
0
1002
}
  0
LINE
  5
58C
330
2
100
AcDbEntity
  8
0
100
AcDbLine
 10
366.3978805100394
 20
30.36058567711666
 30
0.0
 11
368.3978805100394
 21
32.36058567711666
 31
0.0
1001
ACAD
1000
ASC_BOUNDS
1002
{
1070
    19
1005
0
1002
}
  0
LINE
  5
58D
330
2
100
AcDbEntity
  8
0
100
AcDbLine
 10
338.3978805100394
 20
30.36058567711666
 30
0.0
 11
336.3978805100394
 21
32.36058567711666
 31
0.0
1001
ACAD
1000
ASC_BOUNDS
1002
{
1070
    19
1005
0
1002
}
  0
LINE
  5
58E
330
2
100
AcDbEntity
  8
0
100
AcDbLine
 10
366.3978805100394
 20
30.36058567711666
 30
0.0
 11
338.3978805100394
 21
30.36058567711666
 31
0.0
1001
ACAD
1000
ASC_BOUNDS
1002
{
1070
    19
1005
0
1002
}
  0
LINE
  5
58F
330
2
100
AcDbEntity
  8
LINIE
  6
STRICHLINIE
 48
12.0
100
AcDbLine
 10
336.3978805100394
 20
53.36058567711666
 30
0.0
 11
368.3978805100394
 21
53.36058567711666
 31
0.0
1001
ACAD
1000
ASC_BOUNDS
1002
{
1070
    19
1005
0
1002
}
  0
LINE
  5
590
330
2
100
AcDbEntity
  8
LINIE
  6
STRICHLINIE
 48
12.0
100
AcDbLine
 10
336.3978805100394
 20
39.36058567711666
 30
0.0
 11
368.3978805100394
 21
39.36058567711666
 31
0.0
1001
ACAD
1000
ASC_BOUNDS
1002
{
1070
    19
1005
0
1002
}
  0
LINE
  5
591
330
2
100
AcDbEntity
  8
MITTE
 48
10.0
100
AcDbLine
 10
334.1738424057955
 20
46.36058567711666
 30
0.0
 11
370.9894015966909
 21
46.36058567711666
 31
0.0
  0
LINE
  5
592
330
2
100
AcDbEntity
  8
0
 48
10.0
100
AcDbLine
 10
369.9978805100393
 20
66.36058567711666
 30
0.0
 11
369.9978805100393
 21
74.20058567711658
 31
0.0
  0
LINE
  5
593
330
2
100
AcDbEntity
  8
0
 48
10.0
100
AcDbLine
 10
368.3978805100394
 20
74.20058567711658
 30
0.0
 11
369.9978805100393
 21
74.20058567711658
 31
0.0
  0
ARC
  5
594
330
2
100
AcDbEntity
  8
0
100
AcDbCircle
 10
335.1978805100393
 20
81.16058567711661
 30
0.0
 40
1.199999999999999
100
AcDbArc
 50
0.0
 51
90.0
1001
ACAD
1000
ASC_BOUNDS
1002
{
1070
    19
1005
0
1005
0
1005
0
1002
}
  0
LINE
  5
595
330
2
100
AcDbEntity
  8
0
100
AcDbLine
 10
330.3978805100394
 20
82.62853486954782
 30
0.0
 11
331.3978805100394
 21
82.36058567711666
 31
0.0
1001
ACAD
1000
ASC_BOUNDS
1002
{
1070
    19
1005
0
1002
}
  0
LINE
  5
596
330
2
100
AcDbEntity
  8
0
100
AcDbLine
 10
331.3978805100394
 20
82.36058567711666
 30
0.0
 11
335.1978805100393
 21
82.36058567711666
 31
0.0
1001
ACAD
1000
ASC_BOUNDS
1002
{
1070
    19
1005
0
1002
}
  0
LINE
  5
599
330
2
100
AcDbEntity
  8
0
 48
10.0
100
AcDbLine
 10
369.9978805100393
 20
178.3605856771166
 30
0.0
 11
369.9978805100393
 21
170.5205856771167
 31
0.0
  0
ARC
  5
59A
330
2
100
AcDbEntity
  8
0
100
AcDbCircle
 10
335.1978805100393
 20
163.5605856771167
 30
0.0
 40
1.199999999999999
100
AcDbArc
 50
270.0
 51
0.0
1001
ACAD
1000
ASC_BOUNDS
1002
{
1070
    19
1005
0
1005
0
1002
}
  0
LINE
  5
59B
330
2
100
AcDbEntity
  8
0
100
AcDbLine
 10
331.3978805100394
 20
162.3605856771166
 30
0.0
 11
330.3978805100394
 21
162.0926364846855
 31
0.0
1001
ACAD
1000
ASC_BOUNDS
1002
{
1070
    19
1005
0
1002
}
  0
LINE
  5
59C
330
2
100
AcDbEntity
  8
0
100
AcDbLine
 10
331.3978805100394
 20
162.3605856771166
 30
0.0
 11
335.1978805100393
 21
162.3605856771166
 31
0.0
1001
ACAD
1000
ASC_BOUNDS
1002
{
1070
    19
1005
0
1002
}
  0
LINE
  5
59D
330
2
100
AcDbEntity
  8
0
 48
10.0
100
AcDbLine
 10
368.3978805100394
 20
170.5205856771167
 30
0.0
 11
369.9978805100393
 21
170.5205856771167
 31
0.0
  0
LINE
  5
59E
330
2
100
AcDbEntity
  8
MITTE
 48
10.0
100
AcDbLine
 10
333.8093321874703
 20
198.3605856771166
 30
0.0
 11
371.3539118150159
 21
198.3605856771166
 31
0.0
  0
LINE
  5
59F
330
2
100
AcDbEntity
  8
LINIE
  6
STRICHLINIE
 48
12.0
100
AcDbLine
 10
336.3978805100394
 20
191.3605856771166
 30
0.0
 11
368.3978805100394
 21
191.3605856771166
 31
0.0
1001
ACAD
1000
ASC_BOUNDS
1002
{
1070
    19
1005
0
1002
}
  0
LINE
  5
5A0
330
2
100
AcDbEntity
  8
LINIE
  6
STRICHLINIE
 48
12.0
100
AcDbLine
 10
336.3978805100394
 20
205.3605856771167
 30
0.0
 11
368.3978805100394
 21
205.3605856771167
 31
0.0
1001
ACAD
1000
ASC_BOUNDS
1002
{
1070
    19
1005
0
1002
}
  0
LINE
  5
5A1
330
2
100
AcDbEntity
  8
0
100
AcDbLine
 10
366.3978805100394
 20
214.3605856771166
 30
0.0
 11
338.3978805100394
 21
214.3605856771166
 31
0.0
1001
ACAD
1000
ASC_BOUNDS
1002
{
1070
    19
1005
0
1002
}
  0
LINE
  5
5A2
330
2
100
AcDbEntity
  8
0
100
AcDbLine
 10
336.3978805100394
 20
212.3605856771166
 30
0.0
 11
338.3978805100394
 21
214.3605856771166
 31
0.0
1001
ACAD
1000
ASC_BOUNDS
1002
{
1070
    19
1005
0
1002
}
  0
LINE
  5
5A3
330
2
100
AcDbEntity
  8
0
100
AcDbLine
 10
366.3978805100394
 20
214.3605856771166
 30
0.0
 11
368.3978805100394
 21
212.3605856771166
 31
0.0
1001
ACAD
1000
ASC_BOUNDS
1002
{
1070
    19
1005
0
1002
}
  0
LINE
  5
5ED
330
2
100
AcDbEntity
  8
0
 48
10.0
100
AcDbLine
 10
604.9978805100392
 20
66.36058567711643
 30
0.0
 11
604.9978805100392
 21
178.3605856771166
 31
0.0
  0
LINE
  5
5EE
330
2
100
AcDbEntity
  8
0
100
AcDbLine
 10
609.1978805100393
 20
178.3605856771169
 30
0.0
 11
609.1978805100393
 21
66.36058567711666
 31
0.0
  0
LINE
  5
5F3
330
2
100
AcDbEntity
  8
MITTE
 48
10.0
100
AcDbLine
 10
811.6876017485543
 20
219.3038540349173
 30
0.0
 11
811.6876017485543
 21
26.14621442756629
 31
0.0
  0
CIRCLE
  5
5F4
330
2
100
AcDbEntity
  8
0
100
AcDbCircle
 10
811.6876017485543
 20
122.3605856771166
 30
0.0
 40
40.0
  0
ARC
  5
5F5
330
2
100
AcDbEntity
  8
0
100
AcDbCircle
 10
811.6876017485543
 20
122.3605856771166
 30
0.0
 40
60.0
100
AcDbArc
 50
142.7522191041628
 51
217.2477808958372
  0
ARC
  5
5F6
330
2
100
AcDbEntity
  8
0
100
AcDbCircle
 10
811.6876017485543
 20
122.3605856771166
 30
0.0
 40
62.0
100
AcDbArc
 50
142.7522191041628
 51
217.2477808958372
  0
ARC
  5
5F7
330
2
100
AcDbEntity
  8
0
100
AcDbCircle
 10
811.6876017485543
 20
122.3605856771166
 30
0.0
 40
60.0
100
AcDbArc
 50
322.7522191041628
 51
37.24778089583719
  0
ARC
  5
5F8
330
2
100
AcDbEntity
  8
0
100
AcDbCircle
 10
811.6876017485543
 20
122.3605856771166
 30
0.0
 40
62.0
100
AcDbArc
 50
322.7522191041628
 51
37.24778089583719
  0
LINE
  5
5F9
330
2
100
AcDbEntity
  8
0
100
AcDbLine
 10
681.1978805100393
 20
178.3605856771169
 30
0.0
 11
681.1978805100393
 21
66.36058567711666
 31
0.0
  0
LINE
  5
5FA
330
2
100
AcDbEntity
  8
0
100
AcDbLine
 10
609.1978805100393
 20
66.36058567711689
 30
0.0
 11
681.1978805100391
 21
66.36058567711689
 31
0.0
  0
LINE
  5
5FB
330
2
100
AcDbEntity
  8
0
 48
10.0
100
AcDbLine
 10
609.1978805100393
 20
74.20058567711681
 30
0.0
 11
604.9978805100392
 21
74.20058567711681
 31
0.0
  0
LINE
  5
5FD
330
2
100
AcDbEntity
  8
0
100
AcDbLine
 10
859.2136817962746
 20
85.73720905374011
 30
0.0
 11
821.9849190922268
 21
37.42552074205173
 31
0.0
  0
LINE
  5
5FE
330
2
100
AcDbEntity
  8
0
100
AcDbLine
 10
860.7978844645318
 20
84.51642983296096
 30
0.0
 11
823.5691217604845
 21
36.20474152127258
 31
0.0
  0
LINE
  5
5FF
330
2
100
AcDbEntity
  8
0
100
AcDbLine
 10
764.1615217008339
 20
85.73720905374011
 30
0.0
 11
801.3902844048816
 21
37.42552074205173
 31
0.0
  0
LINE
  5
600
330
2
100
AcDbEntity
  8
0
100
AcDbLine
 10
762.5773190325767
 20
84.51642983296096
 30
0.0
 11
799.8060817366245
 21
36.20474152127258
 31
0.0
  0
ARC
  5
602
330
2
100
AcDbEntity
  8
0
100
AcDbCircle
 10
811.6876017485543
 20
45.36058567711665
 30
0.0
 40
13.0
100
AcDbArc
 50
217.6176796664285
 51
322.3823203335714
  0
ARC
  5
603
330
2
100
AcDbEntity
  8
0
100
AcDbCircle
 10
811.6876017485543
 20
45.36058567711665
 30
0.0
 40
15.0
100
AcDbArc
 50
217.6176796664285
 51
322.3823203335714
  0
LINE
  5
604
330
2
100
AcDbEntity
  8
MITTE
 48
10.0
100
AcDbLine
 10
800.7499467132412
 20
45.36058567711665
 30
0.0
 11
823.719023201786
 21
45.36058567711665
 31
0.0
  0
CIRCLE
  5
605
330
2
100
AcDbEntity
  8
0
100
AcDbCircle
 10
811.6876017485543
 20
45.36058567711665
 30
0.0
 40
7.0
  0
LINE
  5
606
330
2
100
AcDbEntity
  8
MITTE
 48
10.0
100
AcDbLine
 10
746.5282436180228
 20
122.3605856771166
 30
0.0
 11
877.3875049766933
 21
122.3605856771166
 31
0.0
  0
CIRCLE
  5
607
330
2
100
AcDbEntity
  8
0
100
AcDbCircle
 10
811.6876017485543
 20
122.3605856771166
 30
0.0
 40
20.0
  0
CIRCLE
  5
608
330
2
100
AcDbEntity
  8
0
100
AcDbCircle
 10
811.6876017485543
 20
122.3605856771166
 30
0.0
 40
14.0
  0
CIRCLE
  5
609
330
2
100
AcDbEntity
  8
0
100
AcDbCircle
 10
811.6876017485543
 20
122.3605856771166
 30
0.0
 40
12.0
  0
LINE
  5
60A
330
2
100
AcDbEntity
  8
0
100
AcDbLine
 10
806.6876017485542
 20
140.5605856771167
 30
0.0
 11
816.6876017485542
 21
140.5605856771167
 31
0.0
  0
LINE
  5
60B
330
2
100
AcDbEntity
  8
0
100
AcDbLine
 10
806.6876017485542
 20
140.5605856771167
 30
0.0
 11
806.6876017485542
 21
135.4372825077387
 31
0.0
  0
LINE
  5
60C
330
2
100
AcDbEntity
  8
0
100
AcDbLine
 10
816.6876017485542
 20
140.5605856771167
 30
0.0
 11
816.6876017485542
 21
135.4372825077387
 31
0.0
  0
LINE
  5
60D
330
2
100
AcDbEntity
  8
0
100
AcDbLine
 10
609.1978805100393
 20
178.3605856771169
 30
0.0
 11
681.1978805100393
 21
178.3605856771169
 31
0.0
  0
LINE
  5
60E
330
2
100
AcDbEntity
  8
0
 48
10.0
100
AcDbLine
 10
609.1978805100393
 20
170.5205856771167
 30
0.0
 11
604.9978805100392
 21
170.5205856771167
 31
0.0
  0
CIRCLE
  5
610
330
2
100
AcDbEntity
  8
0
100
AcDbCircle
 10
811.6876017485543
 20
199.3605856771166
 30
0.0
 40
7.0
  0
LINE
  5
611
330
2
100
AcDbEntity
  8
0
100
AcDbLine
 10
859.2136817962746
 20
158.9839623004932
 30
0.0
 11
821.9849190922268
 21
207.2956506121816
 31
0.0
  0
LINE
  5
612
330
2
100
AcDbEntity
  8
0
100
AcDbLine
 10
860.7978844645318
 20
160.2047415212723
 30
0.0
 11
823.5691217604845
 21
208.5164298329607
 31
0.0
  0
LINE
  5
613
330
2
100
AcDbEntity
  8
0
100
AcDbLine
 10
762.5773190325767
 20
160.2047415212723
 30
0.0
 11
799.8060817366245
 21
208.5164298329607
 31
0.0
  0
LINE
  5
614
330
2
100
AcDbEntity
  8
0
100
AcDbLine
 10
764.1615217008339
 20
158.9839623004932
 30
0.0
 11
801.3902844048816
 21
207.2956506121816
 31
0.0
  0
LINE
  5
615
330
2
100
AcDbEntity
  8
MITTE
 48
10.0
100
AcDbLine
 10
800.7499467132412
 20
199.3605856771166
 30
0.0
 11
823.719023201786
 21
199.3605856771166
 31
0.0
  0
ARC
  5
616
330
2
100
AcDbEntity
  8
0
100
AcDbCircle
 10
811.6876017485543
 20
199.3605856771166
 30
0.0
 40
13.0
100
AcDbArc
 50
37.61767966642856
 51
142.3823203335714
  0
ARC
  5
617
330
2
100
AcDbEntity
  8
0
100
AcDbCircle
 10
811.6876017485543
 20
199.3605856771166
 30
0.0
 40
15.0
100
AcDbArc
 50
37.61767966642856
 51
142.3823203335714
  0
ARC
  5
1B89
330
2
100
AcDbEntity
  8
0
100
AcDbCircle
 10
141.2251559216943
 20
122.3605856771166
 30
0.0
 40
62.0
100
AcDbArc
 50
322.7522191041617
 51
37.24778089583832
  0
ARC
  5
1B8A
330
2
100
AcDbEntity
  8
0
100
AcDbCircle
 10
141.2251559216943
 20
122.3605856771166
 30
0.0
 40
60.0
100
AcDbArc
 50
322.7522191041617
 51
37.24778089583832
  0
ARC
  5
1B8B
330
2
100
AcDbEntity
  8
0
100
AcDbCircle
 10
141.2251559216943
 20
122.3605856771166
 30
0.0
 40
62.0
100
AcDbArc
 50
142.7522191041616
 51
217.2477808958383
  0
ARC
  5
1B8C
330
2
100
AcDbEntity
  8
0
100
AcDbCircle
 10
141.2251559216943
 20
122.3605856771166
 30
0.0
 40
60.0
100
AcDbArc
 50
142.7522191041616
 51
217.2477808958383
  0
LINE
  5
1B8E
330
2
100
AcDbEntity
  8
MITTE
 48
10.0
100
AcDbLine
 10
141.2251559216943
 20
219.3038540349173
 30
0.0
 11
141.2251559216943
 21
26.14621442756629
 31
0.0
  0
LINE
  5
1B8F
330
2
100
AcDbEntity
  8
MITTE
 48
10.0
100
AcDbLine
 10
76.06579779116282
 20
122.3605856771166
 30
0.0
 11
206.9250591498335
 21
122.3605856771166
 31
0.0
  0
LINE
  5
1B90
330
2
100
AcDbEntity
  8
0
100
AcDbLine
 10
190.3354386376718
 20
84.51642983296096
 30
0.0
 11
153.1066759336245
 21
36.20474152127258
 31
0.0
  0
LINE
  5
1B91
330
2
100
AcDbEntity
  8
0
100
AcDbLine
 10
188.7512359694147
 20
85.73720905374011
 30
0.0
 11
151.5224732653669
 21
37.42552074205173
 31
0.0
  0
LINE
  5
1B92
330
2
100
AcDbEntity
  8
0
100
AcDbLine
 10
92.11487320571677
 20
84.51642983296096
 30
0.0
 11
129.3436359097645
 21
36.20474152127258
 31
0.0
  0
LINE
  5
1B93
330
2
100
AcDbEntity
  8
0
100
AcDbLine
 10
93.69907587397392
 20
85.73720905374011
 30
0.0
 11
130.9278385780217
 21
37.42552074205173
 31
0.0
  0
CIRCLE
  5
1B94
330
2
100
AcDbEntity
  8
0
100
AcDbCircle
 10
141.2251559216943
 20
45.36058567711665
 30
0.0
 40
7.0
  0
LINE
  5
1B95
330
2
100
AcDbEntity
  8
MITTE
 48
10.0
100
AcDbLine
 10
130.2875008863811
 20
45.36058567711665
 30
0.0
 11
153.2565773749261
 21
45.36058567711665
 31
0.0
  0
ARC
  5
1B96
330
2
100
AcDbEntity
  8
0
100
AcDbCircle
 10
141.2251559216943
 20
45.36058567711665
 30
0.0
 40
15.0
100
AcDbArc
 50
217.6176796664329
 51
322.3823203335671
  0
ARC
  5
1B97
330
2
100
AcDbEntity
  8
0
100
AcDbCircle
 10
141.2251559216943
 20
45.36058567711665
 30
0.0
 40
13.0
100
AcDbArc
 50
217.6176796664329
 51
322.3823203335671
  0
LINE
  5
1B98
330
2
100
AcDbEntity
  8
0
100
AcDbLine
 10
190.3354386376718
 20
160.2047415212723
 30
0.0
 11
153.1066759336245
 21
208.5164298329607
 31
0.0
  0
LINE
  5
1B99
330
2
100
AcDbEntity
  8
0
100
AcDbLine
 10
188.7512359694147
 20
158.9839623004932
 30
0.0
 11
151.5224732653669
 21
207.2956506121816
 31
0.0
  0
LINE
  5
1B9A
330
2
100
AcDbEntity
  8
0
100
AcDbLine
 10
93.69907587397392
 20
158.9839623004932
 30
0.0
 11
130.9278385780217
 21
207.2956506121816
 31
0.0
  0
LINE
  5
1B9B
330
2
100
AcDbEntity
  8
0
100
AcDbLine
 10
92.11487320571677
 20
160.2047415212723
 30
0.0
 11
129.3436359097645
 21
208.5164298329607
 31
0.0
  0
CIRCLE
  5
1B9C
330
2
100
AcDbEntity
  8
0
100
AcDbCircle
 10
141.2251559216943
 20
199.3605856771166
 30
0.0
 40
7.0
  0
LINE
  5
1B9D
330
2
100
AcDbEntity
  8
MITTE
 48
10.0
100
AcDbLine
 10
130.2875008863811
 20
199.3605856771166
 30
0.0
 11
153.2565773749261
 21
199.3605856771166
 31
0.0
  0
ARC
  5
1BA1
330
2
100
AcDbEntity
  8
0
100
AcDbCircle
 10
141.2251559216943
 20
199.3605856771166
 30
0.0
 40
15.0
100
AcDbArc
 50
37.61767966643288
 51
142.3823203335671
  0
ARC
  5
1BA2
330
2
100
AcDbEntity
  8
0
100
AcDbCircle
 10
141.2251559216943
 20
199.3605856771166
 30
0.0
 40
13.0
100
AcDbArc
 50
37.61767966643288
 51
142.3823203335671
  0
ENDSEC
  0
SECTION
  2
OBJECTS
  0
DICTIONARY
  5
1B
330
0
100
AcDbDictionary
281
     1
  3
ACAD_COLOR
350
2B50
  3
ACAD_GROUP
350
19
  3
ACAD_LAYOUT
350
236
  3
ACAD_MATERIAL
350
2B3B
  3
ACAD_MLINESTYLE
350
1A
  3
ACAD_PLOTSETTINGS
350
237
  3
ACAD_PLOTSTYLENAME
350
234
  3
ACAD_TABLESTYLE
350
2B51
  3
ACAD_VISUALSTYLE
350
2B3F
  3
ACDBVARIABLEDICTIONARY
350
21F
  3
ACMDICTIONARY
350
1FD
  3
AMG
350
23D
  3
AMGSNAPSETTINGS
350
267
  0
DICTIONARY
  5
3
330
2
100
AcDbDictionary
280
     1
281
     1
  3
ACAD_LAYOUTSELFREF
360
267B
  0
DICTIONARY
  5
17E1
330
8
100
AcDbDictionary
280
     1
281
     1
  3
ACAD_LAYOUTSELFREF
360
267C
  0
DICTIONARY
  5
2B50
102
{ACAD_REACTORS
330
1B
102
}
330
1B
100
AcDbDictionary
281
     1
  0
DICTIONARY
  5
19
102
{ACAD_REACTORS
330
1B
102
}
330
1B
100
AcDbDictionary
281
     1
  0
DICTIONARY
  5
236
102
{ACAD_REACTORS
330
1B
102
}
330
1B
100
AcDbDictionary
281
     1
  3
Layout1
350
239
  3
Model
350
238
  0
DICTIONARY
  5
2B3B
102
{ACAD_REACTORS
330
1B
102
}
330
1B
100
AcDbDictionary
281
     1
  3
ByBlock
350
2B3D
  3
ByLayer
350
2B3C
  3
Global
350
2B3E
  0
DICTIONARY
  5
1A
102
{ACAD_REACTORS
330
1B
102
}
330
1B
100
AcDbDictionary
281
     1
  3
STANDARD
350
1C
  0
DICTIONARY
  5
237
102
{ACAD_REACTORS
330
1B
102
}
330
1B
100
AcDbDictionary
281
     1
  0
ACDBDICTIONARYWDFLT
  5
234
102
{ACAD_REACTORS
330
1B
102
}
330
1B
100
AcDbDictionary
281
     1
  3
Normal
350
235
100
AcDbDictionaryWithDefault
340
235
  0
DICTIONARY
  5
2B51
102
{ACAD_REACTORS
330
1B
102
}
330
1B
100
AcDbDictionary
281
     1
  3
Standard
350
2B52
  0
DICTIONARY
  5
2B3F
102
{ACAD_REACTORS
330
1B
102
}
330
1B
100
AcDbDictionary
281
     1
  3
2dWireframe
350
2B45
  3
3D Hidden
350
2B47
  3
3dWireframe
350
2B46
  3
Basic
350
2B44
  3
Brighten
350
2B4B
  3
ColorChange
350
2B4F
  3
Conceptual
350
2B48
  3
Dim
350
2B4A
  3
Facepattern
350
2B4E
  3
Flat
350
2B40
  3
FlatWithEdges
350
2B41
  3
Gouraud
350
2B42
  3
GouraudWithEdges
350
2B43
  3
Linepattern
350
2B4D
  3
Realistic
350
2B49
  3
Thicken
350
2B4C
  0
DICTIONARY
  5
21F
102
{ACAD_REACTORS
330
1B
102
}
330
1B
100
AcDbDictionary
281
     1
  3
CTABLESTYLE
350
2BD8
  3
INDEXCTL
350
220
  0
DICTIONARY
  5
1FD
102
{ACAD_REACTORS
330
1B
102
}
330
1B
100
AcDbDictionary
280
     1
281
     1
  3
ACMSTDDICTIONARY
360
1FE
  3
AMDTSECTSYM_ARROWCOLOR
360
2BC2
  0
DICTIONARY
  5
23D
102
{ACAD_REACTORS
330
1B
102
}
330
1B
100
AcDbDictionary
281
     1
  0
DICTIONARY
  5
267
102
{ACAD_REACTORS
330
1B
102
}
330
1B
100
AcDbDictionary
281
     1
  0
XRECORD
  5
267B
102
{ACAD_REACTORS
330
3
102
}
330
3
100
AcDbXrecord
280
     1
340
2
  0
XRECORD
  5
267C
102
{ACAD_REACTORS
330
17E1
102
}
330
17E1
100
AcDbXrecord
280
     1
340
8
  0
LAYOUT
  5
239
102
{ACAD_REACTORS
330
236
102
}
330
236
100
AcDbPlotSettings
  1

  2
Kein
  4

  6

 40
0.0
 41
0.0
 42
0.0
 43
0.0
 44
0.0
 45
0.0
 46
0.0
 47
0.0
 48
0.0
 49
0.0
140
0.0
141
0.0
142
1.0
143
1.0
 70
   688
 72
     0
 73
     0
 74
     5
  7
Zeich.ctb
 75
    16
147
1.0
 76
     0
 77
     2
 78
   300
148
0.0
149
0.0
100
AcDbLayout
  1
Layout1
 70
     0
 71
     1
 10
0.0
 20
0.0
 11
420.0
 21
297.0
 12
0.0
 22
0.0
 32
0.0
 14
1.000000000000000E+20
 24
1.000000000000000E+20
 34
1.000000000000000E+20
 15
-1.000000000000000E+20
 25
-1.000000000000000E+20
 35
-1.000000000000000E+20
146
0.0
 13
0.0
 23
0.0
 33
0.0
 16
1.0
 26
0.0
 36
0.0
 17
0.0
 27
1.0
 37
0.0
 76
     0
330
8
  0
LAYOUT
  5
238
102
{ACAD_REACTORS
330
236
102
}
330
236
100
AcDbPlotSettings
  1

  2
Microsoft Office Document Image Writer
  4
A4
  6

 40
3.174999952316284
 41
3.174999952316284
 42
3.17498779296875
 43
3.175003051757812
 44
297.0106506347656
 45
209.9733276367187
 46
0.0
 47
54.22133576496133
 48
33.09789
 49
35.252046
140
45.3363
141
48.638577
142
1.0
143
4.258340021317141
 70
 11956
 72
     1
 73
     0
 74
     1
  7
Zeich.ctb
 75
     0
147
0.234833290670549
 76
     0
 77
     2
 78
   300
148
-79.53186370377898
149
-78.30047732952562
100
AcDbLayout
  1
Model
 70
     1
 71
     0
 10
0.0
 20
0.0
 11
12.0
 21
9.0
 12
0.0
 22
0.0
 32
0.0
 14
0.0
 24
0.0
 34
0.0
 15
0.0
 25
0.0
 35
0.0
146
0.0
 13
0.0
 23
0.0
 33
0.0
 16
1.0
 26
0.0
 36
0.0
 17
0.0
 27
1.0
 37
0.0
 76
     0
330
2
331
2B39
1001
ACAD_PSEXT
1000
Microsoft Office Document Image Writer
1000
Microsoft Office Document Image Writer Driver
1000
Microsoft Document Imaging Writer Port:
1000

1070
     0
  0
MATERIAL
  5
2B3D
102
{ACAD_XDICTIONARY
360
2C33
102
}
102
{ACAD_REACTORS
330
2B3B
102
}
330
2B3B
100
AcDbMaterial
  1
ByBlock
  0
MATERIAL
  5
2B3C
102
{ACAD_XDICTIONARY
360
2C31
102
}
102
{ACAD_REACTORS
330
2B3B
102
}
330
2B3B
100
AcDbMaterial
  1
ByLayer
  0
MATERIAL
  5
2B3E
102
{ACAD_XDICTIONARY
360
2C35
102
}
102
{ACAD_REACTORS
330
2B3B
102
}
330
2B3B
100
AcDbMaterial
  1
Global
  0
MLINESTYLE
  5
1C
102
{ACAD_REACTORS
330
1A
102
}
330
1A
100
AcDbMlineStyle
  2
STANDARD
 70
     0
  3

 62
     0
 51
90.0
 52
90.0
 71
     2
 49
0.5
 62
   256
  6
BYLAYER
 49
-0.5
 62
   256
  6
BYLAYER
  0
ACDBPLACEHOLDER
  5
235
102
{ACAD_REACTORS
330
234
102
}
330
234
  0
TABLESTYLE
  5
2B52
102
{ACAD_XDICTIONARY
360
2C37
102
}
102
{ACAD_REACTORS
330
2B51
102
}
330
2B51
100
AcDbTableStyle
  3
Standard
 70
     0
 71
     0
 40
0.06
 41
0.06
280
     0
281
     0
  7
STANDARD
140
0.18
170
     2
 62
     0
 63
     7
283
     0
274
    -2
284
     1
 64
     0
275
    -2
285
     1
 65
     0
276
    -2
286
     1
 66
     0
277
    -2
287
     1
 67
     0
278
    -2
288
     1
 68
     0
279
    -2
289
     1
 69
     0
  7
STANDARD
140
0.25
170
     5
 62
     0
 63
     7
283
     0
274
    -2
284
     1
 64
     0
275
    -2
285
     1
 65
     0
276
    -2
286
     1
 66
     0
277
    -2
287
     1
 67
     0
278
    -2
288
     1
 68
     0
279
    -2
289
     1
 69
     0
  7
STANDARD
140
0.18
170
     5
 62
     0
 63
     7
283
     0
274
    -2
284
     1
 64
     0
275
    -2
285
     1
 65
     0
276
    -2
286
     1
 66
     0
277
    -2
287
     1
 67
     0
278
    -2
288
     1
 68
     0
279
    -2
289
     1
 69
     0
  0
VISUALSTYLE
  5
2B45
102
{ACAD_REACTORS
330
2B3F
102
}
330
2B3F
100
AcDbVisualStyle
  2
2dWireframe
 70
     4
 71
     0
 72
     2
 73
     0
 90
        0
 40
-0.6
 41
-30.0
 62
     5
 63
     7
421
 16777215
 74
     1
 91
        4
 64
     7
 65
   257
 75
     1
175
     1
 42
1.0
 92
        0
 66
   257
 43
1.0
 76
     1
 77
     6
 78
     2
 67
     7
 79
     5
170
     0
171
     0
290
     0
174
     0
 93
        1
 44
0.0
173
     0
291
     0
 45
0.0
1001
ACAD
1000
AcDbSavedByObjectVersion
1070
     0
  0
VISUALSTYLE
  5
2B47
102
{ACAD_REACTORS
330
2B3F
102
}
330
2B3F
100
AcDbVisualStyle
  2
3D Hidden
 70
     6
 71
     1
 72
     2
 73
     2
 90
        0
 40
-0.6
 41
-30.0
 62
     5
 63
     7
421
 16777215
 74
     2
 91
        2
 64
     7
 65
   257
 75
     2
175
     1
 42
40.0
 92
        0
 66
   257
 43
1.0
 76
     1
 77
     6
 78
     2
 67
     7
 79
     3
170
     0
171
     0
290
     0
174
     0
 93
        1
 44
0.0
173
     0
291
     0
 45
0.0
1001
ACAD
1000
AcDbSavedByObjectVersion
1070
     0
  0
VISUALSTYLE
  5
2B46
102
{ACAD_REACTORS
330
2B3F
102
}
330
2B3F
100
AcDbVisualStyle
  2
3dWireframe
 70
     5
 71
     0
 72
     2
 73
     0
 90
        0
 40
-0.6
 41
-30.0
 62
     5
 63
     7
421
 16777215
 74
     1
 91
        4
 64
     7
 65
   257
 75
     1
175
     1
 42
1.0
 92
        0
 66
   257
 43
1.0
 76
     1
 77
     6
 78
     2
 67
     7
 79
     5
170
     0
171
     0
290
     0
174
     0
 93
        1
 44
0.0
173
     0
291
     0
 45
0.0
1001
ACAD
1000
AcDbSavedByObjectVersion
1070
     0
  0
VISUALSTYLE
  5
2B44
102
{ACAD_REACTORS
330
2B3F
102
}
330
2B3F
100
AcDbVisualStyle
  2
Basic
 70
     7
 71
     1
 72
     0
 73
     1
 90
        0
 40
-0.6
 41
-30.0
 62
     5
 63
     7
421
 16777215
 74
     0
 91
        4
 64
     7
 65
   257
 75
     1
175
     1
 42
1.0
 92
        8
 66
     7
 43
1.0
 76
     1
 77
     6
 78
     2
 67
     7
 79
     5
170
     0
171
     0
290
     0
174
     0
 93
        1
 44
0.0
173
     0
291
     1
 45
0.0
1001
ACAD
1000
AcDbSavedByObjectVersion
1070
     0
  0
VISUALSTYLE
  5
2B4B
102
{ACAD_REACTORS
330
2B3F
102
}
330
2B3F
100
AcDbVisualStyle
  2
Brighten
 70
    12
 71
     2
 72
     2
 73
     0
 90
        0
 40
-0.6
 41
-30.0
 62
     5
 63
     7
421
 16777215
 74
     1
 91
        4
 64
     7
 65
   257
 75
     1
175
     1
 42
1.0
 92
        8
 66
     7
 43
1.0
 76
     1
 77
     6
 78
     2
 67
     7
 79
     5
170
     0
171
     0
290
     0
174
     0
 93
        1
 44
50.0
173
     0
291
     1
 45
0.0
1001
ACAD
1000
AcDbSavedByObjectVersion
1070
     0
  0
VISUALSTYLE
  5
2B4F
102
{ACAD_REACTORS
330
2B3F
102
}
330
2B3F
100
AcDbVisualStyle
  2
ColorChange
 70
    16
 71
     2
 72
     2
 73
     3
 90
        0
 40
-0.6
 41
-30.0
 62
     5
 63
     8
421
  8421504
 74
     1
 91
        4
 64
     7
 65
   257
 75
     1
175
     1
 42
1.0
 92
        8
 66
     8
424
  8421504
 43
1.0
 76
     1
 77
     6
 78
     2
 67
     7
 79
     5
170
     0
171
     0
290
     0
174
     0
 93
        1
 44
0.0
173
     0
291
     1
 45
0.0
1001
ACAD
1000
AcDbSavedByObjectVersion
1070
     0
  0
VISUALSTYLE
  5
2B48
102
{ACAD_REACTORS
330
2B3F
102
}
330
2B3F
100
AcDbVisualStyle
  2
Conceptual
 70
     9
 71
     3
 72
     2
 73
     0
 90
        0
 40
-0.6
 41
-30.0
 62
     5
 63
     7
421
 16777215
 74
     2
 91
        2
 64
     7
 65
   257
 75
     1
175
     1
 42
40.0
 92
        8
 66
     7
 43
1.0
 76
     1
 77
     6
 78
     2
 67
     7
 79
     3
170
     0
171
     0
290
     0
174
     0
 93
        1
 44
0.0
173
     0
291
     0
 45
0.0
1001
ACAD
1000
AcDbSavedByObjectVersion
1070
     0
  0
VISUALSTYLE
  5
2B4A
102
{ACAD_REACTORS
330
2B3F
102
}
330
2B3F
100
AcDbVisualStyle
  2
Dim
 70
    11
 71
     2
 72
     2
 73
     0
 90
        0
 40
-0.6
 41
-30.0
 62
     5
 63
     7
421
 16777215
 74
     1
 91
        4
 64
     7
 65
   257
 75
     1
175
     1
 42
1.0
 92
        8
 66
     7
 43
1.0
 76
     1
 77
     6
 78
     2
 67
     7
 79
     5
170
     0
171
     0
290
     0
174
     0
 93
        1
 44
-50.0
173
     0
291
     1
 45
0.0
1001
ACAD
1000
AcDbSavedByObjectVersion
1070
     0
  0
VISUALSTYLE
  5
2B4E
102
{ACAD_REACTORS
330
2B3F
102
}
330
2B3F
100
AcDbVisualStyle
  2
Facepattern
 70
    15
 71
     2
 72
     2
 73
     0
 90
        0
 40
-0.6
 41
-30.0
 62
     5
 63
     7
421
 16777215
 74
     1
 91
        4
 64
     7
 65
   257
 75
     1
175
     1
 42
1.0
 92
        8
 66
     7
 43
1.0
 76
     1
 77
     6
 78
     2
 67
     7
 79
     5
170
     0
171
     0
290
     0
174
     0
 93
        1
 44
0.0
173
     0
291
     1
 45
0.0
1001
ACAD
1000
AcDbSavedByObjectVersion
1070
     0
  0
VISUALSTYLE
  5
2B40
102
{ACAD_REACTORS
330
2B3F
102
}
330
2B3F
100
AcDbVisualStyle
  2
Flat
 70
     0
 71
     2
 72
     1
 73
     1
 90
        2
 40
-0.6
 41
30.0
 62
     5
 63
     7
421
 16777215
 74
     0
 91
        4
 64
     7
 65
   257
 75
     1
175
     1
 42
1.0
 92
        8
 66
     7
 43
1.0
 76
     1
 77
     6
 78
     2
 67
     7
 79
     5
170
     0
171
     0
290
     0
174
     0
 93
       13
 44
0.0
173
     0
291
     1
 45
0.0
1001
ACAD
1000
AcDbSavedByObjectVersion
1070
     0
  0
VISUALSTYLE
  5
2B41
102
{ACAD_REACTORS
330
2B3F
102
}
330
2B3F
100
AcDbVisualStyle
  2
FlatWithEdges
 70
     1
 71
     2
 72
     1
 73
     1
 90
        2
 40
-0.6
 41
30.0
 62
     5
 63
     7
421
 16777215
 74
     1
 91
        4
 64
     7
 65
   257
 75
     1
175
     1
 42
1.0
 92
        0
 66
   257
 43
1.0
 76
     1
 77
     6
 78
     2
 67
     7
 79
     5
170
     0
171
     0
290
     0
174
     0
 93
       13
 44
0.0
173
     0
291
     1
 45
0.0
1001
ACAD
1000
AcDbSavedByObjectVersion
1070
     0
  0
VISUALSTYLE
  5
2B42
102
{ACAD_REACTORS
330
2B3F
102
}
330
2B3F
100
AcDbVisualStyle
  2
Gouraud
 70
     2
 71
     2
 72
     2
 73
     1
 90
        2
 40
-0.6
 41
30.0
 62
     5
 63
     7
421
 16777215
 74
     0
 91
        4
 64
     7
 65
   257
 75
     1
175
     1
 42
1.0
 92
        0
 66
     7
 43
1.0
 76
     1
 77
     6
 78
     2
 67
     7
 79
     5
170
     0
171
     0
290
     0
174
     0
 93
       13
 44
0.0
173
     0
291
     1
 45
0.0
1001
ACAD
1000
AcDbSavedByObjectVersion
1070
     0
  0
VISUALSTYLE
  5
2B43
102
{ACAD_REACTORS
330
2B3F
102
}
330
2B3F
100
AcDbVisualStyle
  2
GouraudWithEdges
 70
     3
 71
     2
 72
     2
 73
     1
 90
        2
 40
-0.6
 41
30.0
 62
     5
 63
     7
421
 16777215
 74
     1
 91
        4
 64
     7
 65
   257
 75
     1
175
     1
 42
1.0
 92
        0
 66
   257
 43
1.0
 76
     1
 77
     6
 78
     2
 67
     7
 79
     5
170
     0
171
     0
290
     0
174
     0
 93
       13
 44
0.0
173
     0
291
     1
 45
0.0
1001
ACAD
1000
AcDbSavedByObjectVersion
1070
     0
  0
VISUALSTYLE
  5
2B4D
102
{ACAD_REACTORS
330
2B3F
102
}
330
2B3F
100
AcDbVisualStyle
  2
Linepattern
 70
    14
 71
     2
 72
     2
 73
     0
 90
        0
 40
-0.6
 41
-30.0
 62
     5
 63
     7
421
 16777215
 74
     1
 91
        4
 64
     7
 65
   257
 75
     7
175
     7
 42
1.0
 92
        8
 66
     7
 43
1.0
 76
     1
 77
     6
 78
     2
 67
     7
 79
     5
170
     0
171
     0
290
     0
174
     0
 93
        1
 44
0.0
173
     0
291
     1
 45
0.0
1001
ACAD
1000
AcDbSavedByObjectVersion
1070
     0
  0
VISUALSTYLE
  5
2B49
102
{ACAD_REACTORS
330
2B3F
102
}
330
2B3F
100
AcDbVisualStyle
  2
Realistic
 70
     8
 71
     2
 72
     2
 73
     0
 90
        0
 40
-0.6
 41
-30.0
 62
     5
 63
     7
421
 16777215
 74
     1
 91
        0
 64
     7
 65
   257
 75
     1
175
     1
 42
1.0
 92
        8
 66
     8
424
  7895160
 43
1.0
 76
     1
 77
     6
 78
     2
 67
     7
 79
     5
170
     0
171
     0
290
     0
174
     0
 93
       13
 44
0.0
173
     0
291
     0
 45
0.0
1001
ACAD
1000
AcDbSavedByObjectVersion
1070
     0
  0
VISUALSTYLE
  5
2B4C
102
{ACAD_REACTORS
330
2B3F
102
}
330
2B3F
100
AcDbVisualStyle
  2
Thicken
 70
    13
 71
     2
 72
     2
 73
     0
 90
        0
 40
-0.6
 41
-30.0
 62
     5
 63
     7
421
 16777215
 74
     1
 91
        4
 64
     7
 65
   257
 75
     1
175
     1
 42
1.0
 92
       12
 66
     7
 43
1.0
 76
     1
 77
     6
 78
     2
 67
     7
 79
     5
170
     0
171
     0
290
     0
174
     0
 93
        1
 44
0.0
173
     0
291
     1
 45
0.0
1001
ACAD
1000
AcDbSavedByObjectVersion
1070
     0
  0
DICTIONARYVAR
  5
2BD8
102
{ACAD_REACTORS
330
21F
102
}
330
21F
100
DictionaryVariables
280
     0
  1
STANDARD
  0
DICTIONARYVAR
  5
220
102
{ACAD_REACTORS
330
21F
102
}
330
21F
100
DictionaryVariables
280
     0
  1
1
  0
DICTIONARY
  5
1FE
102
{ACAD_REACTORS
330
1FD
102
}
330
1FD
100
AcDbDictionary
281
     1
  0
XRECORD
  5
2BC2
102
{ACAD_REACTORS
330
1FD
102
}
330
1FD
100
AcDbXrecord
280
     1
 90
-1023410169
  0
DICTIONARY
  5
2C33
330
2B3D
100
AcDbDictionary
280
     1
281
     1
  3
ACAD_XREC_ROUNDTRIP
360
2C34
  0
DICTIONARY
  5
2C31
330
2B3C
100
AcDbDictionary
280
     1
281
     1
  3
ACAD_XREC_ROUNDTRIP
360
2C32
  0
DICTIONARY
  5
2C35
330
2B3E
100
AcDbDictionary
280
     1
281
     1
  3
ACAD_XREC_ROUNDTRIP
360
2C36
  0
DICTIONARY
  5
2C37
330
2B52
100
AcDbDictionary
280
     1
281
     1
  3
ACAD_XREC_ROUNDTRIP
360
2C38
  0
XRECORD
  5
2C34
102
{ACAD_REACTORS
330
2C33
102
}
330
2C33
100
AcDbXrecord
280
     1
102
MATERIAL
148
0.0
149
0.0
149
0.0
 93
        0
 94
       63
282
     0
 72
     1
 77
     1
171
     1
175
     1
179
     1
273
     0
  0
XRECORD
  5
2C32
102
{ACAD_REACTORS
330
2C31
102
}
330
2C31
100
AcDbXrecord
280
     1
102
MATERIAL
148
0.0
149
0.0
149
0.0
 93
        0
 94
       63
282
     0
 72
     1
 77
     1
171
     1
175
     1
179
     1
273
     0
  0
XRECORD
  5
2C36
102
{ACAD_REACTORS
330
2C35
102
}
330
2C35
100
AcDbXrecord
280
     1
102
MATERIAL
148
0.0
149
0.0
149
0.0
 93
        0
 94
       63
282
     0
 72
     1
 77
     1
171
     1
175
     1
179
     1
273
     0
  0
XRECORD
  5
2C38
102
{ACAD_REACTORS
330
2C37
102
}
330
2C37
100
AcDbXrecord
280
     1
102
ACAD_ROUNDTRIP_PRE2007_TABLESTYLE
 90
      512
 91
        0
  1

 92
      512
 93
        0
  2

 94
      512
 95
        0
  3

  0
ENDSEC
  0
EOF
